Cifras Web
Divididos

El Arriero

Divididos

11 acessos

by: Federico Solla (*)
This is the intro of the song


|---------------------------------------------------------------|
|---------------------------------------------------------------|
|-----9b11~-------------------9b11--9p7\6-----------------------|
|-9---------------------------------------9p8~--------9p8~------|
|---------------------------------------------------------------|
|---------------------------------------------------------------|



----------7----------------------------7-------------------------|
------------107--------------10b12------10-7---------------------|
--9b11----------9b11r9p7-9~-----------------9b11-7-9--7----------|
--------------------------------------------------9-9-----9p7----|
-------------------------------------------------------------9\7-|
-----------------------------------------------------------------|



-----------------------------------------7----------7-9p7h9p7--7-|
---------------------------------------7---7-10b12-----------10--|
-------------------------------------7---------------------------|
-------7-----9p7-9b11r---9p7-9b12-9------------------------------|
-5-7/9-----------------------------------------------------------|
-----------------------------------------------------------------|



-------------------------------------------------------------|
-7---------9-9-7-----------------------------------------7---|
----9b11-7-9-9-7-----------------------------------------7---|
-----------------9-7--------------------------------8/9------|
--------------------9\7-5---5-6-7---/---10--5---7------------|
--------------------------7----------------------------------|



-------------------------------------------------------------|
----------------------------------------------------10----10-|
---------------------------------9b11r9p7-----7-----9-----9--|
--9-7h-9-7---------------------------------9-----9---8-----8-|
-------------9-7----------------------------------9-----9----|
-------------------10-7-------10-----------------------------|


--------------------------7-------------------------------------|
------------------------------7---------------------------------|
----------------------7-----------7-----------------------------|
-----7--------------------------------9\------------------------|
-9-------7--------9-------------------9\------------------------|
-----------10-7-----------------------7\------------------------|

TOP cifras de Divididos

  1. Capo Capón
  2. Azulejo
  3. Spaghetti Del Rock
  4. El Burrito Base
  5. Tanto Anteojo (riff)
  6. El Arriero
  7. Quien Se Ha Tomado Todo El Vino
  8. Andá a Lavártelos
  9. Aburridos Peligrosos
  10. Pepe Lui

Pela Web