Cifras Web
Divididos

Rock

Divididos

5 acessos

Dm                            C
  Through the course of an embrace
Bb                             F
  Our sisters felt a striking hand
Dm                                       C
  Their fear was raised by the light of day
Bb                                     F
  Their quiet rage sleeps with them tonight

           Dm                C
We have a reason to ban our heart
Bb                                F
  We have a reason to change our mind
Dm                            C
  Through the course of an embrace
Bb                             F
  Our sisters felt a striking hand
Dm                                       C
  Their fear was raised by the light of day
Bb                                     F
  Their quiet rage sleeps with them tonight
           Dm                C
We have a reason to ban our heart
Bb                                F
  We have a reason to change our mind
        Dm               C
Sister midnight, sister moon
Bb                                           F
  Like me so much don't think I'll see them soon


solo:


e|----13----12-13-13/15--16b-16b--17-15---13-15----13-15-16-17-16-15-13--10p8----8--------------------8--------|
B|-------15-------------------------------------15----------------------------10---10-8/6/8----8-9-10---10-8/6-|
G|-14-------------------------------------------------------------------------------------10-----------------|
D|-----------------------------------------------------------------------------------------------------------|
A|-----------------------------------------------------------------------------------------------------------|
E|------------------------------------------------------------------------------------------------------------|



e|----------------------------------------------------------------------------------------------------------|
B|----------------------------------------------------------------------------------------------------------|
G|-7p5---5--------------------------------------------------------------------------------------------------|
D|-----7---7------------------------------------------------------------------------------------------------|
A|-----------10-8-10/11-10-8-10-8----8-10/10-10--8-10/10-10--8-10/10-10--8-10/10-10--8-10/10-10--8-10/10-10-|
E|--------------------------------10------------------------------------------------------------------------|


e|--------------------------------10-13-13-13p10--12br-10----10-13-10----10-12br-10----10-13-15-17-17-17br--|
B|--------------------------10-13-------------------------10----------10------------10----------------------|
G|----------------------------------------------------------------------------------------------------------|
D|----------------------------------------------------------------------------------------------------------|
A|-8----8-8-8-10-8-8/7/5/7----------------------------------------------------------------------------------|
E|---10-----------------------------------------------------------------------------------------------------|

TOP cifras de Divididos

  1. Capo Capón
  2. Azulejo
  3. Spaghetti Del Rock
  4. El Burrito Base
  5. Tanto Anteojo (riff)
  6. El Arriero
  7. Quien Se Ha Tomado Todo El Vino
  8. Andá a Lavártelos
  9. Aburridos Peligrosos
  10. Pepe Lui

Pela Web