Cifras Web
DJ Alpiste

Louvado Seja

DJ Alpiste

44 acessos

Riff 1:
E|-----55--5-----------------------------7--0----------------
A|---------4-5----------------7--55-7-5----------------------
D|---------4h5--55--4-5-7--4---------------------------------
G|-----------------------------------------------------------

Riff 2:
E|-----55--5--------------------------------------------------
A|---------4-5----------------5-------------------------------
D|---------4h5--55--4-5-7--4----------------------------------
G|-------------------------------7---------------------------- 


TOP cifras de DJ Alpiste

  1. Não Há Barreiras
  2. Louvado Seja
  3. Depois do Casamento
  4. Amor
  5. Ser Ou Não Ser
  6. Guerreiro do Senhor
  7. Eu Vejo Uma Luz

Pela Web