Cifras Web
Dj Ashba

Someday

Dj Ashba

8 acessos

Intro/Verso:

(Guitar I)

E|------------------|
B|------------------|
G|------------------|
D|-----------4h5--2~|
A|X-X--3h5----------|
E|------------------|


(Guitar II)

E|-------(7)---------------(7)------------------(12)--(5)---------------|
B|-----------(7)---------------(7)-----(7)----------------(5)----(5)----|
G|---------------(7)---------------(7)-----(7)----------------(5)----(5)|
D|---(9)---------------(7)----------------------------------------------|
A|----------------------------------------------------------------------|
E|----------------------------------------------------------------------|


(Guitar III)

  G               D                C9
E|--------3---------------2---------------3-------|
B|------3----3--------3-----3---3------3----3---3-|
G|----0--------0----2---2-----2------0---0----0---|
D|----------------0-------------------------------|
A|---------------------------------3--------------|
E|-3----------------------------------------------|


Verso:

(Guitar I)

E|------------------|
B|------------------|
G|------------------|
D|-----------4h5--2~|
A|X-X--3h5----------|
E|------------------|


(Guitar II)

E|-------(7)---------------(7)------------------(12)--(5)---------------|
B|-----------(7)---------------(7)-----(7)----------------(5)----(5)----|
G|---------------(7)---------------(7)-----(7)----------------(5)----(5)|
D|---(9)---------------(7)----------------------------------------------|
A|----------------------------------------------------------------------|
E|----------------------------------------------------------------------|


(Guitar III)

  Em7               D                C9
E|--------3---------------2---------------3-------|
B|------3----3--------3-----3---3------3----3---3-|
G|----0--------0----2---2-----2------0---0----0---|
D|----------------0-------------------------------|
A|---------------------------------3--------------|
E|-0----------------------------------------------|

TOP cifras de Dj Ashba

  1. The Ballad of Death
  2. Mi Amor
  3. Wonder
  4. Vitórisa Em Vitória
  5. Someday

Pela Web