Cifras Web
Donkey Kong Country 2

Bramble Scramble

Donkey Kong Country 2

95 acessos


E |----------------------------------------------------
B |---0-1-0-1-----0-1-0-1------0-1-0-1-----0-1-0-1-----
G |-----------0------------0-----------0----------0----
D |----------------------------------------------------
A |-0-----------0------------3-----------3-------------
E |---------------------------------------------------- (intro 2x)



E |------------3---------3---------3----------3-5-0-----------------------------
B |---------0-1-------0-1-------0-1---------------------------------------------
G |-----------------------------------------------------------------------------
D |-----------------------------------------------------------------------------
A |-----------------2-2-2-2-2-2-2-2------------------0-0-0-0--------------------
E |-1-1-1-1-1-1-1-1-----------------0-0-0-0-0-0-0-0-----------3-3-3-3----------- (riff 1)



E |------------3---------3---------3------8-7-----5----------------------------------
B |---------0-1-------0-1-------0-1----------8---------------------------------------
G |--------------------------------------------9-------------------------------------
D |----------------------------------------------------------------------------------
A |-----------------2-2-2-2-2-2-2-2------------------0-0-0-0-------------------------
E |-1-1-1-1-1-1-1-1-----------------0-0-0-0-0-0-0-0----------3-3-3-3----------------- (riff 2)



E |-----------------------------0-3-3-------3-1-0---------------------5----------5-0---
B |--------------3s5-3------------------------------3-----5s3-1-0-1------------------3-
G |------------------------------------------------------------------------------------
D |------------------------------------------------------------------------------------
A |------------------2-2-2-2-2-2-2------------------0-0-0-0--------------------------2-
E |-1-1-1-1-1-1-1-1-1---------------0-0-0-0-0-0-0-0-----------3-3-3-3-1-1-1-1-1-1-1-1--



E |-5--0---------0-3-3-------3-5--7-----8-7---3--0-
B |-----3------------------------------------------
G |------------------------------------------------
D |------------------------------------------------
A |-2-2-2-2-2-2-2-------------------0-0-0-0--------
E |------------------0-0-0-0-0-0-0-0--------3-3-3-3



E |-5------------0-3-----------0---5----------------0---1-0--------
B |---------1--3---------1-0-1------------1---0-1-------------3--1-
G |-----------------------------------------2----------------------
D |-0-0-0-0-0-0-0-0------------------------------------------------
A |----------------------------------------------------------------
E |----------------0-0-0-0-0-0-0-0--1-1-1-1-1-1-1-1-3-3-3-3-3-3-3-3


(intro)

S = Slide

TOP cifras de Donkey Kong Country 2

  1. Jib Jig
  2. Bramble Scramble
  3. Hot Head Bop

Pela Web