Cifras Web
Donkey Kong Country 2

Hot Head Bop

Donkey Kong Country 2

23 acessos

Standard Tuning

  Rhythm

  Riff 1


E|------0---3---0--------|
B|--------3---3---0-1----|
G|----2------------------|
D|-----------------------|
A|-----------------------|
E|-----------------------|


  Riff 2


E|----0---0-1-0---0------|  |-----------------------|
B|------1-----------1----|  |----3---3-5-3---3------|
G|--------------0--------|  |------4-----------4----|
D|-----------------------|  |--------------5--------|
A|-----------------------|  |-----------------------|
E|-----------------------|  |-----------------------|


  Lead


E|------------------------------------------------------------|
B|----13-12-13-12------13-12-13-15-13-12-13-12----------------|
G|----------------14---------------------------14-14-12-14----|
D|------------------------------------------------------------|
A|------------------------------------------------------------|
E|------------------------------------------------------------|



E|-----------------------------------------------------|
B|----13-12-13-12--------15-13-12-13-12----------------|
G|----------------14--14----------------14-14-12-14----|
D|-----------------------------------------------------|
A|-----------------------------------------------------|
E|-----------------------------------------------------|



E|----12-------13-------13-15-------15----------|
B|-------13-------13----------15-------15-------|
G|----------14-------14----------16-------16----|
D|----------------------------------------------|
A|----------------------------------------------|
E|----------------------------------------------|



E|-----------8-----------------------8-------------------|
B|---------8---8-------------------8---8-----------------|
G|----9-10-------10-9---------9-10-------10-9-10-9-------|
D|--------------------10-10------------------------10----|
A|-------------------------------------------------------|
E|-------------------------------------------------------|



E|-----------8--8-10----|
B|---------8------------|
G|----9-10--------------|
D|----------------------|
A|----------------------|
E|----------------------|



E|----12-13-15-15-13-12-12---12-13-15-15-13-12-12----------|
B|------------------------------------------------13-13----|
G|---------------------------------------------------------|
D|---------------------------------------------------------|
A|---------------------------------------------------------|
E|---------------------------------------------------------|


E|----12-13-15-15-13-12------------12-13-12-------|
B|----------------------15---15-15----------15----|
G|------------------------------------------------|
D|------------------------------------------------|
A|------------------------------------------------|
E|------------------------------------------------|

TOP cifras de Donkey Kong Country 2

  1. Jib Jig
  2. Bramble Scramble
  3. Hot Head Bop

Pela Web