Cifras Web
Dropkick Murphys

Caps And Bottles

Dropkick Murphys

8 acessos

Album-sing loud sing proud
Email- G*

~= Let nite ring
b= bend


Intro

|-------------------------------------------|
|-------------------------------------------|
|-6-6-6-6/-11--13~-13-12---6-6-6-6/-11~-13~-|
|-7-7-7-7/-12~-14~------14-7-7-7-7/-12~-14~-|
|-7-7-7-7/-12~-14~---------7-7-7-7/-12~-14~-|
|-5-5-5-5/-10~-12~---------5-5-5-5/-10~-12~-|



Intro cont

|---------------------------------------|
|---------------------------------------|
|-6-6-6-6/-11~-13-13b-6-6-6-6/-13~--13~-|
|-7-7-7-7/-12~-14-----7-7-7-7/-12~--14~-|
|-7-7-7-7/-12~-14-----7-7-7-7/-12~--14~-|
|-5-5-5-5/-10~-12-----5-5-5-5/-10~--12~-|



verse

|------------------------|
|------------------------|
|------7777-9999-7-6-4-2-|
|-7777-7777-9999-7-6-4-2-|
|-7777-5555-7777-5-4-2-0-|
|-5555-------------------|


Chorus
|---2---|
|-2-3---|
|-2-2-1-|
|-2-0-2-|
|-----2-|
|-----0-|

Bridge

|----------|--------------------|
|-2~--2~--22~--2~--2~-----------|
|-2~--2~--22~--2~--2~-----------|
|-2~--2~--22~--2~--2~-----------|
|-----------------------////////|
|-----------------------////////|


Intro  x1
Verse  x6
Chorus x4
verse  x6
Chorus x4
verse  x2
bridge x1
verse  x6

Theres the whole song 99% right, Comments welcome-let me know what you think

TOP cifras de Dropkick Murphys

  1. The Dirty Glass
  2. Rose Tattoo
  3. Going Out In Style
  4. Barroom Hero
  5. Heroes From Our Past
  6. Pipebomb On Lansdowne
  7. Rocky Road To Dublin
  8. (F)lannigan's Ball
  9. As One
  10. The Gauntlet

Pela Web