Cifras Web
Dustin Kensrue

Identity Crisis Acoustic

Dustin Kensrue

8 acessos

This is my version of
Identity Crisis
Available on *

Not 100% accurate but sound pretty good

Post your comments!

> Intro:
E - C - C7M (X10023)

> Verse 1:
E

Image marred by self-infliction

C                      C7M
Private wars on my soul waged
E
Heart is scarred by dual volitions
C                      C7M
Juxtaposed and both engaged
Am
Kindle flame, a test of faith
       C
Pray help me see it through
G                       D/Dm    E
I put all my trust in you


> Chorus:
E
Refine hate and love
                C
Fall afresh on me

End this crisis of
       C7m
Identity


> Solo (not accurate but sound good) : (2x) 


|-------------------------------------------|
|-------------------------------------------|
|---------------------------------------0---|
|-0------0------0-----0-2---2---4---4-----4-|
|-5/7-7--5/7-7--5/7-5-0-3-3---3-5-5---5-----|
|-------------------------------------------|



> Verse 2:
E
Draw this darkness out like poison
C                     C7M
Stab, retrieve, again decline
E
Help me drive the dagger deeper
C                     C7M
Trace with me explicit line
Am
Take this blade, a test of faith,
       C
And strike me deep and true
G                      D/Dm    E
I put all my trust in you


> Chorus:
E
Refine hate and love
                C
Fall afresh on me

End this crisis of
       C7M
Identity

> Solo: 


|------------------------------------------------------------0-0-0-0-0-0-0-0-0-|
|------------------------------------------------------------1-1-1-1-3-3-3-3-3-|
|---------------------0-0-x-0-0-x-0-0-x----------------------0-0-0-0-0-0-0-0-0-|
|-0------0------------2-2-x-4-4-x-4-4-x--0------0------------2-2-2-2-4-4-4-4-4-|
|-5/7-7--5/7-7-9b-7-0-3-3-x-5-5-x-5-5-x--5/7-7--5/7-7-9b-7-0-3-3-3-3-5-5-5-5-5-|
|------------------------------------------------------------0-0-0-0-0-0-0-0-0-|


> Bridge:
     E                        DM          C                      C7M
This is my voice, all shadows stayed this is my heart, upon the altar laid
     E                Dm     C                     C7M
Please take all else away, hear my cry, I beg, I plead, I pray
     E                Dm     C                      C7M
I'll walk into the flame, a calculated risk to further bless your name
     E                 Dm      C                                 C7M           E
So strike me deep and true, and in your strength I will live and die both unto you.

TOP cifras de Dustin Kensrue

  1. Pistol
  2. Folk
  3. Identity Crisis Acoustic
  4. Consider The Ravens
  5. Please come home

Pela Web