Eagles Of Death Metal

Already Died

Eagles Of Death Metal

tune your guitar to GGDGBD. as soon as you strum the guitar you'll pretty much hear
the tune. this isn't exactly right, but you should be able to get it from this.


D|-0--0-0-0--1--3--1--0---0-0-0-0---1--1-1-1--3-4-3--1-1--1--1--1--0--0---|
B|-0--0-0-0--0--0--0--0---1-0-1-0---1--1-1-1--1-1-1--1-3--1--1--1--0--0---|
G|-0--0-0-0--0--0--0--0---0-0-0-0---1--1-1-1--1-1-1--1-1--1--3--1--0--0---|
D|-0--0-0-0--0--0--0--0---0-0-0-0---1--1-1-1--1-1-1--1-1--1--1--1--0--0---|
G|-0--0-0-0--0--0--0--0---0-0-0-0---1--1-1-1--1-1-1--1-1--1--1--1--0--0---|
G|-0--0-0-0--0--0--0--0---0-0-0-0---1--1-1-1--1-1-1--1-1--1--1--1--0--0---|



D|---------3-3--3--1-0--1-1-1-1--3-4-3--1-1--1-1--1-0----------------------|
B|---------3-3--3--1-0--1-1-1-1--1-1-1--1-3--1-1--1-0----------------------|
G|-------1/3-3--3--1-0--1-1-1-1--1-1-1--1-1--1-3--1-0----------------------|
D|-0-1-3 --3-3--3-------1-1-1-1--1-1-1--1-1--1-1--1-0----------------------|
G|---------3-3--3-------1-1-1-1--1-1-1--1-1--1-1--1-0----------------------|
G----------3-3--3------1--1-1-1--1-1-1--1-1--1-1--1-0----------------------|

That's pretty much it. It's not 100% accurate, but if you listen to the record,
you'll get the timing.
the songs should be in the GGDGBD tuning (the 2 G's give Jesse that great rhythm
sound). You'll know what I mean after you've tuned up.

comments, queries or suggestions to Chris: *

Curte essa cifra? Compartilhe com seus amigos:


Pela Web

Deixe seu comentário