Eagles Of Death Metal

Chase The Devil Intro

Eagles Of Death Metal

Tabbed by: sinnisa
Email: *



e|--13/15--13--10------------------------------------------------------------|
B|--------------------13--11--13---------------------------------------------|
G|--------------------------------12-----------------------------------------|
D|---------------------------------------------------------------------------|
A|---------------------------------------------------------------------------|
E|---------------------------------------------------------------------------|



e|--13/15--13--10------------------------------------------------------------|
B|--------------------13--11--13--11-----------------------------------------|
G|---------------------------------------------------------------------------|
D|---------------------------------------------------------------------------|
A|---------------------------------------------------------------------------|
E|---------------------------------------------------------------------------|



e|--13/15--13--10----------------------------------------------13-15-13------|
B|--------------------13--11--13--11--------13/15-13/15-13/15-----------15---|
G|-----------------------------------12--------------------------------------|
D|---------------------------------------------------------------------------|
A|---------------------------------------------------------------------------|
E|---------------------------------------------------------------------------|



| / slide up
| \ slide down
| h hammer-on
| p pull-off
| ~ vibrato
| + harmonic
| x Mute note
===============================================================================

Curte essa cifra? Compartilhe com seus amigos:


Pela Web

Deixe seu comentário