Eagles Of Death Metal

Cherry Cola

Eagles Of Death Metal

Tabbed by: Tim Jessop
Email: *

Tuning: G G D G B D (very important!)

Intro/Chorus


D|--------------------------------------------------------------------------|
B|--------------------------------------------------------------------------|
G|-8---5-5---6-6---7-7---8---5-5----6-6---7-7------8---8--------------------|
D|-8---5-5---6-6---7-7---8---5-5----6-6---7-7------8---8--------------------|
G|-8---5-5---6-6---7-7---8---5-5----6-6---7-7------8---8--------------------|
G|-8---5-5---6-6---7-7---8---5-5----6-6---7-7------8---8--------------------|


Verse 1


D|--------------------------------------------------------------------------|
B|--------------------------------------------------------------------------|
G|-8------------3-3---5--5-----8-----------3-3---5--5-----------------------|
D|-8------------3-3---5--5-----8-----------3-3---5--5-----------------------|
G|-8------------3-3---5--5-----8-----------3-3---5--5-----------------------|
G|-8------------3-3---5--5-----8-----------3-3---5--5-----------------------|


Chorus

Solo, (1 guitar plays verse)


D|-10/13----13^--13---13p10h13p10h13p10--13---10/13--13/10------------------|
B|-------14---------------------------------------------------7-------------|
G|--------------------------------------------------------------------------|
D|--------------------------------------------------------------------------|
G|--------------------------------------------------------------------------|
G|--------------------------------------------------------------------------|



D|-8/10--10p8---8----10/13---11--13--11-11---13/20----13---10p8h10p8h10p8/5-|
B|--------------------------------------------------------------------------|
G|--------------------------------------------------------------------------|
D|--------------------------------------------------------------------------|
G|--------------------------------------------------------------------------|
G|--------------------------------------------------------------------------|


Verse 2


D|------8--------8---------------------------5------5-----------------------|
B|---------8---------8-------8------------------5------5--------------------|
G|-8----------8----------8--------3-3--5--5-------5----5--------------------|
D|-8------------------------------3-3--5--5---------------------------------|
G|-8------------------------------3-3--5--5---------------------------------|
G|-8------------------------------3-3--5--5---------------------------------|


Chorus

Bridge


D|--------------------------------------------------------------------------------------|
B|--------------------------------------------------------------------------------------|
G|-12---10-10---7-7---5-5---------------------------------------------------------------|
D|-12---10-10---7-7---5-5---------------------------------------------------------------|
G|-12---10-10---7-7---5-5---------------------------------------------------------------|
G|-12---10-10---7-7---5-5---------------------------------------------------------------|


Chorus 2


D|--------------------------------------------------------------------------|
B|--------------------------------------------------------------------------|
G|-6---8-8----3--5-5---6-6--8-8---------------------------------------------|
D|-6---8-8----3--5-5---6-6--8-8---------------------------------------------|
G|-6---8-8----3--5-5---6-6--8-8---------------------------------------------|
G|-6---8-8----3--5-5---6-6--8-8---------------------------------------------|


Guitar 2


D|-3/5--3-----4^-----3/5---3------------------------------------------------|
B|---------4------------------4---------------------------------------------|
G|--------------------------------5^----------------------------------------|
D|--------------------------------------------------------------------------|
G|--------------------------------------------------------------------------|
G|--------------------------------------------------------------------------|


| / slide up
| \ slide down
| h hammer-on
| p pull-off
| ~ vibrato
| + harmonic
| x Mute note
| ^ Bend
=============================================================================

Curte essa cifra? Compartilhe com seus amigos:


Pela Web

Deixe seu comentário