Cifras Web
Elfen Lied

Lilium

Elfen Lied

26 acessos


E|---9--------------9--------------------------------------------------------|
B|-7---9-10-10----7---9-10-12-10-7---9--------7---------7----9-10-12-10-9----|
G|-------------------------------------9-7-9----7-6-7-9----------------------|
D|---------------------------------------------------------------------------|
A|---------------------------------------------------------------------------|
E|---------------------------------------------------------------------------|



E|---9--------------9-------------------------------------7------------------|
B|-7---9-10-10----7---9-10-12-10-7----9----------7----------10-9-7-6-4-6-7---|
G|--------------------------------------9-7-9------7-6-7---------------------|
D|---------------------------------------------------------------------------|
A|---------------------------------------------------------------------------|
E|---------------------------------------------------------------------------|



E|-6-7-9-10------10-9-12----9-7---------------6-7-9-10------10-9-12----9-7-------------|
B|----------10-9---------10-----10-9-------------------10-9---------10-----10-9-7-10-9-|
G|-----------------------------------9-7-6---------------------------------------------|
D|-------------------------------------------------------------------------------------|
A|-------------------------------------------------------------------------------------|
E|-------------------------------------------------------------------------------------|



E|---9--------------9--------------------------------------------------------|
B|-7---9-10-10----7---9-10-12-10-7---9--------7---------7----9-10-12-10-9----|
G|-------------------------------------9-7-9----7-6-7-9----------------------|
D|---------------------------------------------------------------------------|
A|---------------------------------------------------------------------------|
E|---------------------------------------------------------------------------|



E|---9--------------9-------------------------------------7------------------|
B|-7---9-10-10----7---9-10-12-10-7----9----------7----------10-9-7-6-4-6-7---|
G|--------------------------------------9-7-9------7-6-7---------------------|
D|---------------------------------------------------------------------------|
A|---------------------------------------------------------------------------|
E|---------------------------------------------------------------------------|



E|----7-9-7-10-9-7-----------7-9-12-7-9----------7-9----7-10-9-7-9----------------9-12-10-7-9-|
B|-10--------------10-9---10------------------10-----10------------10-9-10-7-9-10-------------|
G|--------------------------------------------------------------------------------------------|
D|--------------------------------------------------------------------------------------------|
A|--------------------------------------------------------------------------------------------|
E|--------------------------------------------------------------------------------------------|



E|-14-12-10-9-10-7-9-------------7-9-12-10-7-9-------------------------------|
B|-------------------10-9---7-10---------------------------------------------|
G|------------------------9--------------------------------------------------|
D|---------------------------------------------------------------------------|
A|---------------------------------------------------------------------------|
E|---------------------------------------------------------------------------|



E|-6-7-9-10------10-9-12----9-7---------------6-7-9-10------10-9-12----9-7-------------|
B|----------10-9---------10-----10-9-------------------10-9---------10-----10-9-7-10-9-|
G|-----------------------------------9-7-6---------------------------------------------|
D|-------------------------------------------------------------------------------------|
A|-------------------------------------------------------------------------------------|
E|-------------------------------------------------------------------------------------|



E|---9--------------9--------------------------------------------------------|
B|-7---9-10-10----7---9-10-12-10-7---9--------7---------7----9-10-12-10-9----|
G|-------------------------------------9-7-9----7-6-7-9----------------------|
D|---------------------------------------------------------------------------|
A|---------------------------------------------------------------------------|
E|---------------------------------------------------------------------------|



E|---9--------------9-------------------------------------7------------------|
B|-7---9-10-10----7---9-10-12-10-7----9----------7----------10-9-7-6-4-6-7---|
G|--------------------------------------9-7-9------7-6-7---------------------|
D|---------------------------------------------------------------------------|
A|---------------------------------------------------------------------------|
E|---------------------------------------------------------------------------|



E|----7-9-7-10-9-7-----------7-9-12-7-9----------7-9----7-10-9-7-9----------------9-12-10-7-9-|
B|-10--------------10-9---10------------------10-----10------------10-9-10-7-9-10-------------|
G|--------------------------------------------------------------------------------------------|
D|--------------------------------------------------------------------------------------------|
A|--------------------------------------------------------------------------------------------|
E|--------------------------------------------------------------------------------------------|



E|-14-12-10-9-10-7-9-------------7-9-12-10-7-9-------------------------------|
B|-------------------10-9---7-10---------------------------------------------|
G|------------------------9--------------------------------------------------|
D|---------------------------------------------------------------------------|
A|---------------------------------------------------------------------------|
E|---------------------------------------------------------------------------|



E|---9--------------9-------------------------------------7------------------|
B|-7---9-10-10----7---9-10-12-10-7----9----------7----------10-9-7-6-4-6-7---|
G|--------------------------------------9-7-9------7-6-7---------------------|
D|---------------------------------------------------------------------------|
A|---------------------------------------------------------------------------|
E|---------------------------------------------------------------------------|


E|---9--------------9-------------------------------------7------------------|
B|-7---9-10-10----7---9-10-12-10-7----9----------7----------10-9-7-6-4-6-7---|
G|--------------------------------------9-7-9------7-6-7---------------------|
D|---------------------------------------------------------------------------|
A|---------------------------------------------------------------------------|
E|---------------------------------------------------------------------------|

TOP cifras de Elfen Lied

  1. Lilium Music Box
  2. Lilium
  3. Yureai
  4. Ametsuyu
  5. Be Your Girl

Pela Web