Cifras Web
Eli Soares

Colheita

Eli Soares

81 acessos

Intro: C C Bb F/A

Guitarra

E|------------------------------------------------------------|
B|------------------------------------------------------------|
G|-11-10-11-10-11-10-11-10------------------------------------|
D|-------------------------11-9-------------------------------|
A|------------------------------------------------------------|
E|------------------------------------------------------------|




E|------------------------------------------------------------|
B|-------------------------------9----------------------------|
G|-11-10-11-10-11-10-11-10-11-10---10-------------------------|
D|------------------------------------------------------------|
A|------------------------------------------------------------|
E|------------------------------------------------------------|



C                   C
Chegou o tempo da colheita
             Bb
E Deus mandou a chuva
       F/A
Pra regar a terra seca
                      C
E pra molhar meu coração
                          C
As coisas velhas já passaram
                      Bb
Uma coisa nova Deus tem pra mim

                    F/A
Uma nova história Deus tem pra mim


C
Valeu!

                      C
O velho homem já morreu

                           Bb
Uma coisa nova Deus tem pra mim

                               F/A
Uma nova história Deus tem pra mim!

    Bb
Tem sim!


C
Oh, oh!

        Bb
Foi embora o tempo da derrota
F/A
Vem, yeah!

Bb
A glória da segunda casa

C
Oh, oh!
Bb
Foi embora o tempo da derrota
F/A
Vem, yeah!
Bb
A glória da segunda casa

TOP cifras de Eli Soares

  1. Os Anjos Te Louvam
  2. Rocha
  3. Eu Sou
  4. Deus Não É Culpado
  5. Efraim
  6. Meu Amanhã
  7. Me Ajudar a Melhorar
  8. Deus Está Aqui
  9. Ele Sorriu Pra Mim
  10. Porque Ele Vive

Pela Web