Cifras Web
Elliott Yamin

Don't Turn Away

Elliott Yamin

7 acessos

(Intro)
Am C F
Am C F G


     Am          C           F
E|---------------------------------------------------|
B|---------1-----------0-----------1-----------1-----|
G|-------2---2-------2---2-------2---2-------2---2---|
D|-----2-------2---2-------2---3-------3---3-------3-|
A|---0-----------3-----------------------------------|
E|---------------------------1-----------1-----------|



     Am          C           F                  G
E|------------------------------------------------------|
B|---------1-----------0-----------1-----------1------3-|
G|-------2---2-------2---2-------2---2-------2------4---|
D|-----2-------2---2-------2---3-------3---3------5-----|
A|---0-----------3--------------------------------------|
E|---------------------------1-----------1------3-------|


(Verse)
Am        C                F
  Maybe i love you was too much
Am                  C                 F          G
  Cos' now it feels like we're out of touch
Am                   C            F
  And maybe this was all a big mistake

  Cos' i don't know how to take you

Am                        C                 F          G
  For your heart it's the chance i'd rather take
            Am         C        F
  Please forgive me if i cannot hide what i feel
            Am       C           F                     G
  I'm just trying to make you believe that i'm real

(Chorus)
Am         F             C           G
Don't turn away when i'm right here waiting
Am         F            C         G
Don't be afraid cos we both are changing
Dm              F      Am               G
  If it's real it will be what it's suppose to be
Dm              F     Am                  G            Am
  All i ask from you is please don't turn away from me
C            F
  Don't turn away

Am   C   F   G

(Verse 2)
Am                C                   F
  Maybe i should just give you your space
       Am           C              F        G
But without you i feel so out of place
Am                  C
  The more i reach out to you
              F                             G
It's like the further you go away
          Am        C                      F       G
I just want you to hear what i'm trying to say

(Chorus)

Don't turn away when i'm right here waiting
Don't be afraid cos we both are changing
If it's real it will be what it's suppose to be
All i ask from you is please don't turn away from me
Oh oh oh don't turn away

(Chorus)

Don't turn away cos i'm right here waiting
Don't be afraid cos we both are changing
If it's real it will be what it's suppose to be
All i ask from you is please don't turn away from me
Please don't turn away

TOP cifras de Elliott Yamin

  1. Wait For You Intro
  2. Wait For You
  3. Don't Turn Away

Pela Web