Elvis Presley

Something

Elvis Presley

Something
---------
Standard tuning.
Intro:
e||----------------------------------------------------------------------||
B||----10--pb12r12p10--11--12---13---------------------------------------||
G||----------------------------------------------------------------------||
D||----------------------------------------------------------------------||
A||----------------------------------------------------------------------||
E||----------------------------------------------------------------------||
Something in the .....
pb = pre|-bend... First bend the string then play the note.
r = release bend
Riff 1:
e||-----------||
B||-----------||
G||-----------||
D||---3---2---||
A||-----------||
E||-----------||
e||----------------------------------------------------------------------||
B||----------------------------------------------------------------------||
G||----------------------------------------------------------------------||
D||----------------------------------------------------------------------||
A||----------------------------------------------------------------------||
E||----------------------------------------------------------------------||


C Cmaj7
Something in the way she moves
C7 F (Riff 1)
Attracts me like no other lover
D7 G
Something in the way she moves me
Am Am (Add Ab)
I don't want to leave her now
Am7/G D9 (Intro)
You know I believe and how

C Cmaj7
Somewhere in her smile she knows
C F (Riff 1)
All I gotta do is think of her
D7 G
Something in her style that shows me
Am Am (Add Ab)
I don't want to leave her now
Am7/G D9 (Intro) Last note 14th position 2nd string!!!
You know I believe and how

A C#m / G#m F#m7 A/E
You're asking me will our love grow
D G A
I don't know, I don't know
A C#m / G#m F#m7 A/E
You stick around and it may show
D G A
I don't know, I don't know

C Cmaj7
Something in the way she moves
C7 F (Riff 1)
Attracts me like no other lover
D7 G
Something in the way she moves me
Am Am (Add Ab)
I don't want to leave her now
Am7/G D9 (Intro) Last note 14th position 2nd string!!!
You know I believe and how

A C#m / G#m F#m7 A/E
You're asking me will our love grow
D G A
I don't know, I don't know
A C#m / G#m F#m7 A/E
You stick around and it may show
D G A
I don't know, I don't know

C Cmaj7
Something in the way she moves
C7 F (Riff 1)
All I gotta do is think of her
D7 G
Something in her style that shows me
Am Am (Add Ab)
I don't want to leave her now
Am7/G D9 (Intro) C*
You know I believe and how

Chords:
Cmaj7 A/E C#m / G#m Am (Add Ab) Am/G D9 C*
E|--0-- ----- ----- --0-- --0-- --5-- -----
B|--0-- --2-- --5-- --1-- --1-- --5-- --13-
G|--0-- --2-- --6-- --1-- --0-- --5-- --12-
D|--2-- --2-- --6-- --2-- --2-- --4-- --14-
A|--3-- --x-- --x-- --0-- --0-- --5-- -----
E|----- --0-- --4-- ----- ----- ----- -----

Curte essa cifra? Compartilhe com seus amigos:


Pela Web

Deixe seu comentário