Cifras Web
Emil Bulls

Angel Delivery

Emil Bulls

8 acessos

Tabbed by Grease (*)


Intro:

e|------------------|
B|------------------|

G|------------------|   x 4 (Distortion Palm Muted)
D|------------------|
A|------------------|
E|------------------|

B|-0-2-0-2-0-2-0-3--|


Intro 2:

e|------------------------|
b|------------------------|
G|------------------------|  x 4 (full distortion)
D|------------------------|
A|-3/4--3/4--3/4--3/4--5--|
E|-3/4--3/4--3/4--3/4--5--|


B|-1/2--1/2--1/2--1/2--3--|


Verse:
e|------------------|

B|------------------|

G|--6---7---11---6--|   Repeated with Wah/distortion, 
D|------------------|     possibly tremolo picking
A|------------------|
E|------------------|

B|------------------|


Chorus:

e|--------------------------------|
b|--------------------------------|
G|--------------------------------| x 4 Full Distortion
D|--------------------------------|
A|-xx9-9--xx5-5--xx7-7--0-2--0-2--|
E|-xx9-9--xx5-5--xx7-7--0-2--0-2--|


B|-xx7-7--xx3-3--xx5-5--0-0--0-0--|


Bridge:
e|---------------------------------|

B|---------------------------------|

G|--6brb----7brb----11brb----7brb--| x 2 Give these notes a really good 
D|---------------------------------|       bend, release and bend again
A|---------------------------------|
E|---------------------------------|

B|---------------------------------|


Bridge 2:
e|-----------------------------------------------------|
b|-----------------------------------------------------|
G|-----------------------------------------------------| x 2 
D|-----------------------------------------------------| Full
A|-4-4-4-4-4-4--5-5-5-5-5-5--9-9-9-9-9-9--5-5-5-5-5-5--| Distortion
E|-4-4-4-4-4-4--5-5-5-5-5-5--9-9-9-9-9-9--5-5-5-5-5-5--|

B|-2-2-2-2-2-2--3-3-3-3-3-3--7-7-7-7-7-7--3-3-3-3-3-3--|


And End on:

e|----|
b|----|
G|----|
D|----|
A|-4~-|
E|-4~-|
B|-2~-|

Intro       x 4
Intro 2     x 4
Verse       x 2
Chorus      x 4
Intro 2     x 4
Verse       x 2
Chorus      x 4
Bridge      x 2
Bridge 2    x 2
Chorus      x 8
End         x 1

Try that, it’s only a guide remember. Have fun, feel free to email me. Laters.

| /  slide up
| \  slide down
| h  hammer-on
| p  pull-off
| ~  vibrato
| +  harmonic
| x  Mute note

=======================================================================

TOP cifras de Emil Bulls

  1. Leaving With This
  2. Angel Delivery
  3. Leaving You With This
  4. Newborn
  5. Newborn Intro

Pela Web