Cifras Web
Emil Bulls

Newborn

Emil Bulls

7 acessos

Tabbed by: Simon Korn
Email:*

Tuning: Guitar 1: Drop D-Tuning
        Guitar 2: Standard 
Guitar 1:    
(Repeat through Verse)


e|---------------------------------------------------------------------------|
B|---------10---------------10-----------------------------------------------|
G|-----11------11-------11------11-------------------------------------------|
D|---11--11--11--11---11--11--11--11-----------------------------------------|
A|--9----------------9-------------------------------------------------------|
d|---------------------------------------------------------------------------|


Guitar 2:
(Repeat through Verse)

e|---------------------------------------------------------------------------|
B|---------------------------------------------------------------------------|
G|---------------------------------------------------------------------------|
D|-11-------------9------------7---------------------------------------------|
A|-11-(about15*)--9-(about7*)--7-(about7*)-----------------------------------|
E|-9--------------7------------5---------------------------------------------|


Refrain
Guitar 1 

e|---------------------------------------------------------------------------|
B|---------------------------------------------------------------------------|
G|---------------------------------------------------------------------------|
D|---------------------------------------------------------------------------|
A|------9-9--5-5---------------9-9--5-5---------------9-9--5-5---------------|
d|--0-0-9-9--5-5-5-7-5-4-2-0-0-9-9--5-5-5-7-5-4-2-0-0-9-9--5-5-5-7-5-4-2-----|



After the second refrain Guitar 2: (erverything played about 14 or 15 times)  

e|---------------------------------------------------------------------------|
B|---------------------------------------------------------------------------|
G|---------------------------------------------------------------------------|
D|11-9-11-9-7-----------------------------------------------------------------|
A|11-9-11-9-7-----------------------------------------------------------------|
E|9--7-9--7-5-----------------------------------------------------------------|

  
Then Guitar 1: 4 times

e|---------------------------------------------------------------------------|
B|---------------------------------------------------------------------------|
G|---------------------------------------------------------------------------|
D|---------------------------------------------------------------------------|
A|----------7-7-5-5----------------------------------------------------------|
d|--0-0-0-0-7-7-5-5----------------------------------------------------------|



Verse
Refrain
Verse
Refrain
Verse
Refrain 
End with Intro Guitar 1

TOP cifras de Emil Bulls

  1. Leaving With This
  2. Angel Delivery
  3. Leaving You With This
  4. Newborn
  5. Newborn Intro

Pela Web