Cifras Web
Escalas

Escalas de Dó

Escalas

9 acessos


E|---------------------1-3-5-|
B|-----------------3-5-------|
G|-----------2-4-5-----------|
D|-----2-3-5-----------------|
A|-3-5-----------------------|
E|---------------------------|

E|-----------------------3-5-7-|
B|-------------------5-6-------|
G|-------------4-5-7-----------|
D|-------3-5-7-----------------|
A|-3-5-7-----------------------|
E|-----------------------------|

E|-------------------------5-7-8-|
B|-------------------5-6-8-------|
G|---------------5-7-------------|
D|---------5-7-9-----------------|
A|---5-7-8-----------------------|
E|-8-----------------------------|

E|--------------------------------7-8-10-|
B|---------------------------8-10--------|
G|--------------------7-9-10-------------|
D|-------------7-9-10--------------------|
A|------7-8-10---------------------------|
E|-8-10----------------------------------|

(essa é para quem tem violão acústico ou guitarra)

5ª
E|----------------------------12-13-15-|
B|-------------------12-13-15----------|
G|-------------12-14-------------------|
D|----12-14-15-------------------------|
A|-15----------------------------------|
E|-------------------------------------|

TOP cifras de Escalas

  1. Mi Natural
  2. Escalas de Dó
  3. Modos Gregos
  4. Sol Maior
  5. La Maior
  6. Escalas

Pela Web