Cifras Web
Escalas

Escalas

Escalas

8 acessos

Partindo de G:

G Jônio (Modo Maior):


E|-3-5-7----------------------------------------------------
A|----------3-5-7-------------------------------------------
D|---------------------4-5-7--------------------------------
G|-------------------------------4-5-7----------------------
B|------------------------------------------5-7-8------------
E|----------------------------------------------------5-7-8-


A Dórico (Modo Menor):


E|-5-7-8-----------------------------------------------------
A|----------5-7-9--------------------------------------------
D|---------------------5-7-9---------------------------------
G|-------------------------------5-7-9-----------------------
B|------------------------------------------7-9-10------------
E|----------------------------------------------------7-9-10--


B Frígio (Modo Menor):


E|-7-8-10------------------------------------------------------
A|------------7-9-10-------------------------------------------
D|-----------------------7-9-10--------------------------------
G|---------------------------------7-9-11----------------------
B|------------------------------------------8-10-12------------
E|----------------------------------------------------8-10-12--


C Lídio (Modo Maior):


E|-8-10-12-------------------------------------------------------------------
A|--------------9-10-12------------------------------------------------------
D|---------------------------9-10-12-----------------------------------------
G|-------------------------------------9-11-12-------------------------------
B|---------------------------------------------------10-12-13----------------
E|-----------------------------------------------------------------10-12-14--


D Mixolídio (Modo Maior):


E|--10-12-14-------------------------------------------------------------------------
A|----------------10-12-14-----------------------------------------------------------
D|------------------------------10-12-14---------------------------------------------
G|--------------------------------------------11-12-14-------------------------------
B|------------------------------------------------------------12-13-15----------------
E|--------------------------------------------------------------------------12-14-15--


E Eólio (Modo Menor):


E|---12-14-15-----------------------------------------------------------------------
A|-----------------12-14-15---------------------------------------------------------
D|------------------------------10-12-14--------------------------------------------
G|---------------------------------------------12-14-16-----------------------------
B|-------------------------------------------------------------13-15-17---------------
E|--------------------------------------------------------------------------14-15-17--


F# Lócrio (Modo Menor Diminuto):


E|----14-15-17-----------------------------------------------------------------------
A|------------------14-15-17---------------------------------------------------------
D|-------------------------------14-16-17--------------------------------------------
G|----------------------------------------------14-16-17-----------------------------
B|--------------------------------------------------------------15-17-19---------------
E|---------------------------------------------------------------------------15-17-19--


Bons Estudos !

TOP cifras de Escalas

  1. Mi Natural
  2. Escalas de Dó
  3. Modos Gregos
  4. Sol Maior
  5. La Maior
  6. Escalas

Pela Web