Cifras Web
Escalas

La Maior

Escalas

8 acessos


E|-----------------|-----------------|
B|-----------------|-----------------|
G|-----------------|-----------------|
D|-------------5-7-|-7-5-------------|
A|-------5-7-8-----|-----8-7-5-------|
E|-5-7-8-----------|-----------8-7-5-|


E|-----------------|-----------------|
B|-----------------|-----------------|
G|-----------------|-----------------|
D|-----------3-5-7-|-7-5-3-----------|
A|-----3-5-7-------|-------7-5-3-----|
E|-5-7-------------|-------------7-5-|

TOP cifras de Escalas

  1. Mi Natural
  2. Escalas de Dó
  3. Modos Gregos
  4. Sol Maior
  5. La Maior
  6. Escalas

Pela Web