Cifras Web
Eureka

Pensando Em Você

Eureka

8 acessos

F#               B
Eu preciso te dizer
                    F#
Não dá mais pra esconder
                     B
O que eu sinto por você
         C (parada)     
Não dá mais,      eu preciso te dizer

F#                     B                    C                       F# 
Você não sai do meu pensamento, a todo momento, estou pensando em você
F#                   B               C                 F#
Seu eu estou me declarando é porque eu não sei te esquecer
F#                       B                 C                       F#
Você não sai do meu pensamento, a todo momento, estou pensando em você
F#              B            C         F#
Você é a minha vida, quero ficar com você

Solo

e|-2222222222222222--7777777-55555-5-7-5-7--2222222222222222--7777777-5
B|-2222222222222222--7777777-55555-5-7-5-7--2222222222222222--7777777-5
G|---------------------------------------------------------------------
D|---------------------------------------------------------------------
A|---------------------------------------------------------------------
E|---------------------------------------------------------------------


baixo
G|---------
D|-4^12^4-- 
A|---------
E|---------

F#               B                      F#   }
O meu coração sozinho, não sabia onde chegar } Baixo e Bateria
F#               B          C             F# }    
Com você aqui comigo, não preciso mais sonhar}

F#                      B                 C                         F#  
Você não sai do meu pensamento, a todo momento, estou pensando em você
F#                  B                C                F#
Seu eu estou me declarando é porque eu não sei te esquecer
F#                      B                 C                         F#
Você não sai do meu pensamento, a todo momento, estou pensando em você
F#               B           C         F#
Você é a minha vida, quero ficar com você


e|----------------------------------------------------------------------------
B|---------------------------------------9-11----------------11-12-11---------
G|-------8-9------------8-9---------8-11------11-8-----10-13----------13-10---
D|---8-11---11-8---8-11-----11-8--9-----------------11------------------------
A|-9-------------9------------------------------------------------------------
E|----------------------------------------------------------------------------


e|----------------------------------------------------------------------------
B|---------------------------------------9-11--------------------------11-11--
G|-------8-9------------8-9---------8-11------11-8--------10-10--13-13--------
D|---8-11---11-8---8-11-----11-8--9-----------------11-11---------------------
A|-9-------------9------------------------------------------------------------
E|----------------------------------------------------------------------------

TOP cifras de Eureka

  1. Juiz Ladrão
  2. O Seu Lugar
  3. Fotos e Retratos
  4. Menina
  5. Te Encontrar
  6. Pensando Em Você

Pela Web