Cifras Web
Fastball

Slow Drag

Fastball

8 acessos

Intro: Am C F Dm

(x) = tocar a corda 2 vezes
Riff 1 - Introdução

e|--------------------------------------------
B|--------------------------------------------
G|--------------------------------------------
D|-7-5--------------------(7)-5---------------
A|-------7-5-------7-5------------7-(7)-5-----
E|-----------8---5-----------------------8-(5)



Verse 1
Am     C         F      Dm
Slow Drag off a cigarette

Am     C         F             Dm
Slow Drag and I'm lying in my bed

Am                C               F        Dm
All the world is sleeping like a baby tonight 

Am	        C       	F	Dm 
I wanna lay you down in the ground, Allright

Verse 2
Slow Drag and I can't get up now
Slow Drag You've been messin' with my mind
All the world is sleeping like a baby tonight
I wanna see you dead
Laying in the muddy ground

Refrão: C G Bb F
You're nothin' to me
Nothin' to me
Nothin' to me no more.

Riff 2

e|-----------------------------------
B|-----------------------------------
G|-----------------------------------
D|-----------------------------------
A|-----------------------------------
E|-8-10-8-7---7-10-7-6---6-10-6-8----


e|---------------------------------------------
B|---------------------------------------------
G|---------------------------------------------
D|---------------------------------------------
A|------------------7-8--7--5---7-8-7-5---5s7--
E|-0-3-5---0-3-8--8-----------8---------8------

TOP cifras de Fastball

  1. The Way
  2. Wind Me Up
  3. Fire Escape
  4. Fire Escape Intro
  5. Better Than It Was
  6. Are You Ready For The Fallout
  7. Charlie, The Methhadone Man
  8. Out Of My Head
  9. Slow Drag
  10. She Comes Round

Pela Web