Cifras Web
Filipe Galvão (Fiuk)

Só Você

Filipe Galvão (Fiuk)

9 acessos

A5                             G5 G5
Demorei muito pra te encontrar
  A5
agora eu quero só você
          G5          F5       G5 G5 A5
teu jeito todo especial de ser
         G5          F5
eu fico louco com voce

C5          G5    A5         F5
Te abraço e sinto coisas que eu não sei dizer
C5       G5     A5 F5
Só sinto com você
C5       G5    A5     F5
Meu pensamento voa de encontro ao teu
C5       G5      A5  F5
Será que é sonho meu?

A5      G5         F5        G5 G5 A5
Tava cansado de me preocupar
              G5 F5    G5 G5 A5
quantas vezes eu dancei
         G5   F5               G5 G5 A5
E tantas vezes que eu só fiquei
     G5      F5
chorei, chorei

C5       G5       A5          F5
Agora eu quero ir fundo lá na emoção
C5      G5    A5  F5
Mexer teu coração
C5    G5     A5     F5
Salta comigo alto e todo mundo vê
C5           G5      A5  F5
Que eu quero só você
         C5      G/B      F5    G5          A5 G5       F5 G5
Eu quero só você     Só você    Quero só você      Só você

Solo:
E|--------15------------------------15---------------------------------------------|
B|----15-------12-12-13-13~-13/15---------12-12--13----15b17r15b17r15b17r15b17r15--|
G|---------------------------------------------------------------------------------|
D|---------------------------------------------------------------------------------|
A|---------------------------------------------------------------------------------|
E|---------------------------------------------------------------------------------|



E|7p5-------5------------------------------------------------------8--------8---10-10b12-10-8------|
B|--------5-----------------------------------8-------8----10-10-------10----------------------5h7-|
G|---------------7---7b9------------5-----7/9------9-----------------------------------------------|
D|-----------------------------7-------------------------------------------------------------------|
A|-------------------------------------------------------------------------------------------------|
E|-------------------------------------------------------------------------------------------------|


C5          G5    A5         F5
Te abraço e sinto coisas que eu não sei dizer
C5       G5     A5 F5
Só sinto com você

C5       G5    A5     F5
Meu pensamento voa de encontro ao teu
C5       G5      A5  F5
Será que é sonho meu?

C5       G5       A5          F5
Agora eu quero ir fundo lá na emoção
C5      G5    A5  F5
Mexer teu coração
C5    G5     A5     F5
Salta comigo alto e todo mundo vê
C5           G5      A5  F5
Que eu quero só você
         C5      G/B      F5    G5          A5 G5       F5 G5
Eu quero só você     Só você    Quero só você      Só você

TOP cifras de Filipe Galvão (Fiuk)

  1. Quando Lembrar
  2. Quem Eu Sou
  3. Abre Os Olhos
  4. Foi Preciso Você
  5. I Can't Live Without Your Love
  6. Quero Toda Noite
  7. Vinte e Poucos Anos
  8. Só Você
  9. Ás Vezes Sou Tão Criança
  10. Segredo

Pela Web