Cifras Web
Fred e Inácio

Por Toda Vida

Fred e Inácio

8 acessos

Introdução: G, D, C9, D 
(violão base acompanha o solo da introdução)

Solo:

e|-----3-3------3-3------5-5-------5-5------
b|---3--------3-------3---------3--------3--
g|------------------------------------------
D|------------------------------------------
A|------------------------------------------
E|------------------------------------------



e|---5p7-8-7-5-3---3-5h7--8-7-5-------------
b|---------------5--------------------------
g|------------------------------------------
D|------------------------------------------
A|------------------------------------------
E|------------------------------------------



e|-----3-3------3-3------5-5-------5-5------
b|---3--------3-------3---------3--------3--
g|------------------------------------------
D|------------------------------------------
A|------------------------------------------
E|------------------------------------------



e|----5p7-8-7-5-3-----3-12-10-8-10-8-7-5-----
b|----------------5--------------------------
g|-------------------------------------------
D|-------------------------------------------
A|-------------------------------------------
E|-------------------------------------------



   G                          D
Só consigo pensar em você, tá demais em mim essa paixão.
        C9                Am          D          D4 D
Os meus olhos só querem te ver, você mora no meu coração.
      G                              D   
É uma pena que você não queira, dividir comigo esse amor.
       C9                      Am          D
Mas eu não desisto assim tão fácil, de você....
      G                  D            C9
Se me toco eu te vejo é tanto desejo, não vejo 
      D
outra saída.
      G                   D             C9        
Eu te amo te quero, eu te sinto te espero, por toda 
D11 D
vida....

:Refrão:repete 2x (com o Solo)

          G                                          
Ficar sem você é saudade demais, sem os teus  
D
carinhos não vivo jamais.
C9                                 Am               
Se você soubesse o quanto eu te quero ficaria 
D
comigo..
            G
Ficar sem você é saudade de mais, sem os teus
  D
carinho não vivo jamais.
           C9                       Am
Se você soubesse o quanto eu te quero ficaria
  D                G    D    C9    D
comigo....Por toda vida



      G                  D               C9
Se te toco eu te beijo é tanto o desejo, não vejo 
      D
outra saída.
      G                    D              C9        
Eu te amo te quero, eu te sinto te espero, por toda 
D
vida....

Refrão:repete 2x (mais o Solo)
          G                                          
Ficar sem você é saudade demais, sem os teus  
D
carinhos não vivo jamais.
C9                                   Am                                                
Se você soubesse o quanto eu te quero ficaria 
D
comigo..
          G
Ficar sem você é saudade demais, sem os teus
  D
carinhos não vivo jamais.
           C9                       Am
Se você soubesse o quanto eu te quero ficaria
  D                G     C9    G   C9   G
comigo....Por toda vida

TOP cifras de Fred e Inácio

  1. Bão Tamém
  2. Eu To a Mais de Mil
  3. Lágrimas de Crocodilo
  4. Arrocha Com Balada (tchu Tchu Tcharara)
  5. Barraqueira
  6. Querendo Te Amar
  7. A Gente Vai
  8. Balada, Noitada
  9. Quer Voltar
  10. Sozinho Sem Ninguém

Pela Web