Cifras Web
Fresno

Carpe Diem

Fresno

22 acessos

(intro) Dm7

               Bb             F
Eu não sei porque vou envelhecer
            A			Dm
Se é bem assim que eu quero morrer
              Bb            F
Dormindo não vou me desfalecer
                    C       C#           Dm
Pois quando eu for velho eu não vou mais ter


   Dm                 Bb                 F                   C         C#
E|--------------------------------------------------------------------------|
B|--------------------------------------------------------------------------|
G|--------------------------------------------------------------------------|
D|--------------------------------------------------------------------------|
A|-5-5-5-5-5--5-7-8--1-1-1-1-1-1-1-1-1-1---------------------3-3-3-3-3-4-4--|
E|---------------------------------------1-1-1-1-1-1-1-1-1-1----------------|

             Bb                  F
Razão pra viver, um amor pra sofrer
               C                   Dm Bb
Pernas pra correr, uma missão pra ter
       F C
E não dá

       F           C
E não dá pra imaginar
	       Dm   	      Bb
Como eu vou viver no mesmo lugar
               F		 C
Num asilo sem ter amigos pra contar
	          Dm         	       Bb
As coisas que eu fiz e não vou mais fazer


           Bb  Am   Gm 	F C (riff 1)
Porque eu en---ve|--lhe-ci

 	     Dm Bb
Eu devia morrer
		F C
Mas eu me esqueci
	     Dm Bb
De avisar a deus

Dm	      Bb		F
  E agora eu sei que eu devo viver intensamente
   C	     C#	     Dm
Viver pra um dia eu não
           Bb			 F
Me arrepender das coisas que eu fiz
		  C	(riff 2)
E não vou mais fazer
		    F
Daí eu já posso morrer

( F C Dm Bb ) (2x)

( Bb Am Gm )

( F C Dm Bb )

F	     C		       Dm
 e agora eu sei que eu devo viver intensamente
   A		     Bb
Viver pra um dia eu não
           F F/E     Dm Dm/C	   Bb
Me arrepender   das coisas que eu fiz
	          C
E não vou mais fazer
	        F
Eu já posso morrer

(riff 1)
E|-4/5-5-5-3-5-5--5-5-3-5-5--5-5-3-5-6--6-6-5-3- 
B|-5/6-6-6-5-6-6--6-6-5-6-6--6-6-5-6-8--8-8-7-5-
G|----------------------------------------------
D|----------------------------------------------
A|----------------------------------------------
E|----------------------------------------------

   F    E   D   C
E|----------------
B|----------------
G|-10-x-9-x-7-x-5-
D|-x--x-x-x-x-x-x-
A|-8--x-7-x-5-x-3-
E|----------------

TOP cifras de Fresno

  1. Diga Parte 2
  2. Diga
  3. Stonehenge
  4. À Prova de Balas
  5. Eu Sou a Maré Viva
  6. Milonga
  7. Die Lüge
  8. Vida (Biografia em Ré Menor)
  9. Sono Profundo
  10. Cada Poça Dessa Rua Tem Um Pouco De Minhas Lágrimas

Pela Web