Cifras Web
Fresno

Die Lüge

Fresno

85 acessos

(riff 1)

E|------------------------------------------------------
B|------------------------------------------------------
G|--------3-----------2------------1----------5---------
D|---1-----------1------------1----------1--------------
A|-3---3-------3---3--------3---3------3---3------------
E|------------------------------------------------------


(estrofes se usa isso)
(riff 2)

E|----------------------
B|----------------------
G|----------------------
D|--10-8-11-8-8/10------
A|----------------------
E|----------------------


(estrofes usam apenas um riff)

( *pode usar o C5 )
Deixei dinheiro pra me visitar,
Te dei meu sangue pra você pintar,
a parede da sala de estar ( Mas não tem volta )

Te dei meu tempo pra você usar,
Da forma que você bem entender mas eu nunca disse meu amor que era de graça,

Tem algo que eu sempre precisei,
Secretamente eu requisitei,
                                                 (*aqui muda pra F5)
e até quando eu comecei a gritar ( Você não me ouviu )

e eu me contento com o que sobrou eu como o pão que o diabo amaçou,
Mas não divido com você,
                                    C5
Nem um segundo do que me resta a viver,

(refrão)
C5                    D#5
Ninguém mas pode me ouvir,
                     G#5
Ninguém mas pode me parar,
                   F5         G#5
Chegou a hora de gritar ( UÔ Ô Ô Ô )
C5                      D#5
Tudo que eu tinha se acabou,
                     G#5
e foi você quem me tomou,
                     F5
Que cara você vai fazer,
Quando a sua casa desabar,


E|--------------------------------------------------------------------------------------------
B|--------------------------------------------------------------------------------------------
G|--------------------------------------------------------------------------------------------
D|-----------------------------------------------------------------8-8-8-8-8-8-8-8-8-8/10-----
A|-10-8-11-8-8-10---10-8---10/11/10--6/8/6--5/6-3---10-8-11-8-8-10----------------------------
E|--8-6--9-6-6/8-----8-6-----------------------------8-6--9-6-6/8-----------------------------



E|------------------------
B|-----------11˜13--------
G|------9˜11-------9˜11---
D|-8˜10-------------------
A|------------------------
E|------------------------


(riffs - estão presentes nas próximas estrofes)

E|-----------|-----------|-------------------------------------------------
B|-----------|-----------|------------------------------8------------------
G|--------3--|--------7--|-------8----------7-----------------------10-----
D|---1-------|---5-------|---6----------6----------6------------6----------
A|-3---3-----|-6---6-----|-8---8------8---8------8---8--------8---8--------
E|-----------|-----------|-------------------------------------------------


(junto com o riff 2)

E|----------------------
B|----------------------
G|----------------------
D|--10-8-11-8-8/10------
A|----------------------
E|----------------------


(*pode usar o C5)
Um dia desses eu acordei,
Não conseguia respirar,
(*agora D#5)             *F5
Enquanto não cuspisse tudo que eu tinha pra falar,
*C5
Na sua frente na sua cara tudo que eu sei que você é,
*D#5                            *F5
Que você esconde atrás desse sorriso tonto de quem não sabe como é,

C5 (escorregue o dedo indicador até a casa 10)
Olha pra frente e vê,
C5 (escorregue o dedo indicador até a casa 9)
Que não da pra onde ir,
D#5 (escorregue o dedo indicador até a casa 10)
e saber que o seu lugar é muito longe daqui,
F5 (escorregue o dedo médio até a casa 10)    G#5           Bb5        C5
Meu mundo é muito maior seu mundo é uma mentira ( Que você mesmo inventou )

(refrão)
C5                     D#5
Ninguém mas pode me ouvir,
                     G#5
Ninguém mas pode me parar,
                    F5        G#5
Chegou a hora de gritar ( UÔ Ô Ô Ô )
C5                      D#5
Tudo que eu tinha se acabou,
                     G#5
E foi você quem me tomou,
                     F5
Que cara você vai fazer,
Quando a sua casa desabar,


E|--------------------
B|--------------------
G|--------------------
D|--------------------
A|-10-8-11-8-8/10-----
E|--8-6--9-6-6/8------



E|----------------------------------------
B|----------------------------------------
G|----------------------------------------
D|----------------------------------------
A|-------------------6-6-6-5/6-3----------
E|-4-4-4-3-3-3-1-1-1----------------------


C5 (escorregue o dedo indicador até a casa 10)
Mas olha só pra você,
C5 (escorregue o dedo indicador até a casa 9)
Ficou horrível sem mim,
D#5 (escorregue o dedo indicador até a casa 10)
Achou que ia arrasar mas de mil caras afim,
F5 (escorregue o dedo médio até a casa 10)
Mas qualquer um pode ver,
                   G#5            Bb5          C5
Que você é de mentira ( Que só eu mesmo acreditei )

(refrão)
C5                    D#5
Ninguém mas pode me ouvir,
                     G#5
Ninguém mas pode me parar,
                    F5        G#5
Chegou a hora de gritar ( UÔ Ô Ô Ô )
C5                      D#5
Tudo que eu tinha se acabou,
                     G#5
E foi você quem me tomou,
                     F5
Que cara você vai fazer,
                      C5
Quando a sua casa desabar.

TOP cifras de Fresno

  1. Diga Parte 2
  2. Diga
  3. Stonehenge
  4. À Prova de Balas
  5. Eu Sou a Maré Viva
  6. Die Lüge
  7. Milonga
  8. Vida (Biografia em Ré Menor)
  9. Sono Profundo
  10. Cada Poça Dessa Rua Tem Um Pouco De Minhas Lágrimas

Pela Web