Cifras Web
Fresno

Silêncio

Fresno

19 acessos

INTRO: D


e|--3-2-0--3-2-0--|
B|-3-3-3--3-3-3---|


D                                   A
Se eu te disser que ainda me sinto mal
                   Bm
Sabendo que você quer
                      G
Sabendo que te faz feliz
D                                       A
E se algum dia eu te ver com alguém normal
                 Bm
Sabendo que você é
                    G  
Sabendo que nunca quis
                Em
Ficar junto de mim
      G
Pra sempre eu vou pedir 

Bm                             G                      
Eu só queria uma chance pra falar (quebrar o silêncio)
D                                A
Verdade que você nunca quis escutar (que guardo em meu peito)
Bm                                    G
E se o que eu sinto é tudo que você quer (abra seus olhos)
D                                         A
Porque você procura em outro alguém qualquer

D                                        A
Eu sou o disco que você não quer mais ouvir
                  Bm
Sabendo que vai doer
                      G
Sabendo que é sobre você
D                                            A
Eu sou a história que você não quer mais contar
                         Bm
Sabendo que é sobre nós dois
                      G
E o que aconteceu depois
         Em
O nosso fim
      G
Pra sempre eu vou pedir

Bm                             G                      
Eu só queria uma chance pra falar (quebrar o silêncio)
D                                A
Verdade que você nunca quis escutar (que guardo em meu peito)
Bm                                    G
E se o que eu sinto é tudo que você quer (abra seus olhos)
D                                         A
Porque você procura em outro alguém qualquer


e|-------------------------------------------------|
B|-------------------------------------------------|
G|--11-12121212121212-11-9-7-7--11-1212121212-11---|
D|--x--xxxxxxxxxxxxxx-x--x-x-x--x--xxxxxxxxxx-x----|
A|--9--10101010101010-9--7-5-7--9--1010101010-9----|
E|-------------------------------------------------|



e|-------10------10------10------12------12--|
B|-------------------------------------------|
G|--11-12---11-12---11-12---12-14---12-14----|
D|-------------------------------------------|
A|-------------------------------------------|
E|-------------------------------------------|


G|--7/9-11-12121212-11-9-7-|   
D|--xxx-x--xxxxxxxx----x---|
A|--5/7-9--10101010-9--7-5-|

Dedilhado


e|---10---10---10----9---9---9----7---7---7----|
B|-----10---10---10---10--10--10---10--10--10--|
G|--7----7----7----7----7---7---7----7---7---7-|


D                            A
Eu só queria uma chance pra falar (pra quebrar o silêncio)
Bm                                G
Verdades que você nunca quis escutar (mais eu guardo em meu peito)

Bm                             G                      
Eu só queria uma chance pra falar (quebrar o silêncio)
D                                A
Verdade que você nunca quis escutar (que guardo em meu peito)
Bm                                    G
E se o que eu sinto é tudo que você quer (abra seus olhos)
D                                         A
Porque você procura em outro alguém qualquer

Dedilhado:

e|---10---10---10----9---9---9----7---7---7----|
B|-----10---10---10---10--10--10---10--10--10--|
G|--7----7----7----7----7---7---7----7---7---7-|


D                                        A
Eu sou o disco que você não quer mais ouvir
                  Bm
Sabendo que vai doer
                      G
Sabendo que é sobre você

efeito refrão: 

e|--7-5-----|
B|------8-7-|

TOP cifras de Fresno

  1. Diga Parte 2
  2. Diga
  3. Stonehenge
  4. À Prova de Balas
  5. Eu Sou a Maré Viva
  6. Milonga
  7. Die Lüge
  8. Vida (Biografia em Ré Menor)
  9. Sono Profundo
  10. Cada Poça Dessa Rua Tem Um Pouco De Minhas Lágrimas

Pela Web