Cifras Web
Galldino

(Des)amar

Galldino

9 acessos

Verso 1 - 2x:
    A 	    E4/G#      F#m
E|---------5---------5---------5-----------------|
B|-------5---5-----5---5-----2---2---------------|
G|----6----------4---------2-----------2---------| 
D|--7----------6---------5---------2/5---2/5--6--|
A|-----------------------------------------------|
E|-----------------------------------------------|

Verso 1:
A        E4/G#     F#m
Momento e eternidade
         A         E4/G#        F#m
Se encontraram no silêncio e no som
       D       E            D   E        
E se uniram      na imensidão     de um amor
Amor
   A           E4/G#        F#m
Dançavam como brinca uma criança
 A   E4/G#      F#m
Onde homem ou mulher
      D        E    D    E            
Jamais poderá     ousar     com tanto ardor
D  D/C# Bm7 A4 G#m  F#m  E
A...a...a...a...a...a...a

Refrão:
Bm             E
E esse canto
             Bm
Esse desencanto
        E
Esse medo
           Bm    E
Esse med'espanto

Diz: amar

Des)amar

E|---------------7-------9--5--7--9--11--12-------11--12--|
B|-5-7-9-10--9---5----------9-------------9--------9---9--|
G|---------------9--9--9----4-------------9--9--9--8---9--|
D|--------------------------7-----------------------------|
A|--------------------------0-----------------------------|
E|---------------0-------------------------------------0--|

TOP cifras de Galldino

  1. Amorticínio - a Canção
  2. Vejam
  3. Àquela
  4. (Des)amar
  5. Consciência - o Que Foi... o Que Pode Ser

Pela Web