Cifras Web
Geração Quebrantada

Novos Sonhos

Geração Quebrantada

11 acessos


E|--------------------------------------------------------------------------------------------
B|-9-9-9-9-9-9-9-9-9-9-9-9-9-9-9-9-9----------------------------------------------------------
G|--9-9-9-9-9-9-9-9-9-9-9-9-9-9-9-------------------------------------------------------------
D|--------------------------------------------------------------------------------------------
A|--------------------------------------------------------------------------------------------
E|--------------------------------------------------------------------------------------------



                  B         C#m        A           E            B          C#m        A
E|--------------------------------------------------------------------------------------------
B|-9-9-9-9-7---------7-9-9-10-12-10-9-----------9-9-9-9-9-7---------7-9-9-10-12-10-9----------
G|-----------9-8-8-9------------------11-9-11-9------------9-8-8-9-------------------11-9-11-9
D|--------------------------------------------------------------------------------------------
A|--------------------------------------------------------------------------------------------
E|--------------------------------------------------------------------------------------------


VERSO

E                         C#m
Tenho um sonho em meu coração
                   B                        A/F#
Pela fé eu creio então, que vou velo se cumprir
E                           C#m                   B
Vejo a fé de muitos se esfriar, a esperança se acabar
                    A/F#
Mas jamais vou desistir
           C#m              B
Não vou me conformar, muito menos me render
   A                             B
Os sonhos que o Senhor me deu, jamais irão morrer

REFRÃO
      E       B           A           E           B            A
Vou viver, os sonhos do Senhor, agora sei suas promessas são reais
    C#m            D#    C#m B       A
Andarei em tua palavra, viverei pra ti
    C#m  B           D
Rei meu, Viverei pra Ti!
    C#m  B           D
Rei meu, viverei pra Ti!


E|--------------------------------------------------------------------------------------------
B|-9-10-12-10-9-------------------------------------------------------------------------------
G|--------------11-9-11-9---------------------------------------------------------------------
D|--------------------------------------------------------------------------------------------
A|--------------------------------------------------------------------------------------------
E|--------------------------------------------------------------------------------------------


VERSO
         C#m
Tenho um sonho em meu coração
                   B                       A/F#
Pela fé eu creio então, que vou velo se cumprir
E                           C#m                   B
Vejo a fé de muitos se esfriar, a esperança se acabar
                    A/F#
Mas jamais vou desistir
           C#m              B
Não vou me conformar, muito menos me render
   A                             B
Os sonhos que o Senhor me deu, jamais irão morrer

REFRÃO
         E       B           A
Eu vou viver, os sonhos do Senhor
      E           B            A
Agora sei suas promessas são reais
    C#m            D    C#m B       A
Andarei em tua palavra, viverei pra ti
    C#m  B           D
Rei meu, Viverei pra Ti!
    C#m  B           D         E
Rei meu, viverei pra Ti!

TOP cifras de Geração Quebrantada

  1. Geração de Adoradores
  2. Novos Sonhos
  3. Livre
  4. Vem Espirito
  5. Grande É o Senhor

Pela Web