Cifras Web
Gian Marco

Al Otro Lado de La Luna

Gian Marco

6 acessos

INTRO:  C# A#m F# G# A  
                  C#                                              
Basta saber como me miras, 
               A#m 
para saber lo que te pasa,  
                F#m 
basta saber que eres mentira, 
    B                         Bmaj7 
cuando le restas importancia, 
            G#m 
a los detalles y a tus besos, 
          G#m 
a mi secreto y mi deseo,  
             E 
basta saber cuando te veo,  
       F#                          G#       
aunque te pongas a llorar ya no te creo. 
 
CORO: 
C# 
Te dejo mi calor por si te enfrías, 
          A#m 
si te hace falta el aire y mis caricias, 
                     F#m 
y para que me extrañes en el cielo,  
        E                    G#  
deje una nube gris y un aguacero, 
             C# 
te dejo mi respeto que te tiene, 
                     A#m 
a lado de tus cuentos y mis dudas, 
                    F#m 
y para que me extrañes en la noche,  
       E              G#             C#  
deje mi corazón al otro lado de la luna. 
 
E G# 
 
B (igual a A ): 
Basta saber cuando me miras, 
para saber lo que te pasa,  
basta saber que eres mentira,  
cuando tu flor y tu fragancia,  
pertenece a otro cuerpo,  
a otro que tiene por trofeo,  
lo que tenía yo algún día,  
si te tuviera al lado volvería... 
 
CORO(igual al 1er coro): 
A darte mi calor por si te enfrías,   
si te hace falta el aire y mis caricias, 
y para que me extrañes en el cielo,  
deje una nube gris y un aguacero, 
te dejo mi respeto que te tiene, 
a lado de tus cuentos y mis dudas, 
y para que me extrañes por la noche,  
deje mi corazón al otro lado de la luna. 
 
C) 
  Cmaj7                       F#                      B 
Me cuentan que el amor se cura poco a poco con el tiempo, 
      Bbmaj7            E                         Amaj7           
y dice algún teorema que el amor no es una enfermedad, 
    Cmaj7                 F#                         B 
me encuentro en el dilema de extrañarte pues ya no te tengoooo, 
       Bbmaj7                    E                   Amaj7           
y aunque te encuentres lejos basta con besar mi soledad, 
        F#                   G# 
esa es mi forma de amaaaaaaaar... 
 
Punteo igual CORO: 
 
e|------------------------------------------------------------------------------- 
B|---7-9--9--9-----9--9--7--6--7--6--------------------------6-7-6--------------- 
G|----------------------------------------8-8--6-6--8-----6-8---------8-8-6-6--8- 
D|-------------------------------------------------------6------------------------ 
A|-------------------------------------------------------------------------------- 
E|-------------------------------------------------------------------------------- 
 
e|---------------------------------------9-7------------------------ 
B|-----------6-7-5-------------7-9-7------9-5-9-7---7-7-6----------- 
G|-----6-8----------8-------8---------------------------------8--6-- 
D|--6--------------------6------------------------------------------ 
A|------------------------------------------------------------------ 
E|------------------------------------------------------------------ 
(Este es el punteo más importante, 
luego siguen más punteos, pero se escuchan  
poco, o en todo caso se puede improvisar en estas partes). 
 
CORO(5 veces).

TOP cifras de Gian Marco

  1. Libres
  2. No Te Avisa
  3. Resucitar
  4. Lejos de Ti
  5. Canción de amor
  6. Domitila
  7. En Cada Recuerdo
  8. Fragilidad
  9. Te Mentiría
  10. Tomate El Tiempo Que Quieras

Pela Web