Cifras Web
Gian Marco

No Te Avisa

Gian Marco

10 acessos

bueno aca sta lo mejor que pude bueno espero que les guste la 
tablatura xq la cancion es muy buena ARRIBA EL PERU!!!! .... 

NOTAS: 

Cadd     F4 
--3--   --1-- 
--3--   --1-- 
--0--   --3-- 
--2--   --3-- 
--3--   --3-- 
--x--   --1-- 

C Cadd - G - A# - F  (el Cadd es como si diera paso al G ) 

   C 
Otro dia nuevo No ando preocupado 

si esta frio el viento 
                Cadd 
Si llueve en el norte 
      G           F 
Otro dia mas como esos 
               F4-F                 C - Cadd 
Que se escapan de la brujula en la noche 
             G 
Tan desprevenido me cambiaste el clima 

Y no era primavera 
                  F 
Se me aparecio cupido 
             F4-F               F 
No era temporada de una compañera 

CORO 
           C               Cadd      G 
No te avisa, la flecha del amor no avisa 
 A# 
Te confunde el corazon 
                F 
Y con el pecho abierto nunca cicatriza 
   C                        Cadd      G 
No te avisa, la flecha del amor no avisa 
   A#                         F 
Es la causa y el efecto que te pone serio 

Y tambien te da risa…. 

C - G - A# - F 

 C 
Otro dia nuevo 
                                   Cadd 
No ando preocupado si es fin de semana 

O si me voy de viaje 
      G            F 
Otro dia mas como esos 
         F     F4-F                 C 
Que se escapan con los sueños de equipaje 
Cadd         G 
Tan desprevenido me atrapo tu boca 
    G 
Sin saber quien eras 
                  F 
Se me aparecio cupido 
  F          F4-F             F 
No era temporada de una compañera 

CORO 
           C               Cadd      G 
No te avisa, la flecha del amor no avisa 
 A# 
Te confunde el corazon 
                F 
Y con el pecho abierto nunca cicatriza 
        C                  Cadd      G 
No te avisa, la flecha del amor no avisa 
     A#                              F 
Es la causa y el efecto que te pone serio 

Y tambien te da risa…. 

 PUNTEO 

---------------------------------------------------------- 
--12-10----12/13-12----11----11-13------------------------ 
--------12----------------12------------------------------ 
---------------------------------------------------------- 
---------------------------------------------------------- 
---------------------------------------------------------- 
x2 
---------------------------------------------------------- 
-13-12-12-10-10-8-8-6---10-8-8-6-6-5-5-6-8f-10f-17f------- 
---------------------------------------------------------- 
---------------------------------------------------------- 
---------------------------------------------------------- 
---------------------------------------------------------- 

(f = full ) 

CORO 
           C               Cadd      G 
No te avisa, la flecha del amor no avisa 
 A# 
Te confunde el corazon 
                F 
Y con el pecho abierto nunca cicatriza 
   C                       Cadd      G 
No te avisa, la flecha del amor no avisa 
   A#                         F 
Es la causa y el efecto que te pone serio 

Y tambien te da risa…. 

No te avisaa no nooo ..... 

PUNTEO FINAL

TOP cifras de Gian Marco

  1. Libres
  2. No Te Avisa
  3. Resucitar
  4. Lejos de Ti
  5. Canción de amor
  6. Domitila
  7. En Cada Recuerdo
  8. Fragilidad
  9. Te Mentiría
  10. Tomate El Tiempo Que Quieras

Pela Web