Cifras Web
Girl Dead Monster

Shine Days

Girl Dead Monster

5 acessos

This is my first tab, This song is from the anime: Angel Beats! Hope you like it.


E|-------------------------|
B|-------------------------|
G|---17--14--12--12--------|
D|-12--12--10--10----------| (8x)
A|-------------------------|
E|-------------------------|



E|-------------------------|
B|-------------------------|
G|---17--14--12-10-9-------|
D|-12--12------------------|
A|-------------------------|
E|-------------------------|



E|-------------------------|
B|-------------------------|
G|---17--14--12--12--------|
D|-12--12--10--10----------|  (3x)
A|-------------------------|
E|-------------------------|



E|-------------------------|
B|-------------------------|
G|-10--12--10--------------|
D|-------------10--12--10--|
A|-------------------------|
E|-------------------------|



E|-------------------------|
B|-------------------------|
G|---17--14--12--10--------|
D|-12--12--12--12----------|  (3x)
A|-------------------------|
E|-------------------------|



E|-----------------------------------|
B|-----------------------------------|
G|-10--12--10------------------------|
D|-------------10--12--10---/15--/17-|
A|-----------------------------------|
E|-----------------------------------|



E|----------------------------------------------------|
B|----------------------------------------------------|
G|--7-7-7-7-7--3-3-3-3-3-3----------------------------|
D|--7-7-7-7-7--3-3-3-3-3-3--3-3-3-3-3-3--5-5-5-5-5-5--|
A|--5-5-5-5-5--1-1-1-1-1-1--3-3-3-3-3-3--5-5-5-5-5-5--|
E|--------------------------1-1-1-1-1-1--3-3-3-3-3-3--|


E|----------------------------------------------------|
B|----------------------------------------------------|
G|--7-7-7-7-7--3-3-3-3-3-3----------------------------|
D|--7-7-7-7-7--3-3-3-3-3-3--3-3-3-3-3-3--3-3-3-3-3-3--|
A|--5-5-5-5-5--1-1-1-1-1-1--3-3-3-3-3-3--3-3-3-3-3-3--|
E|--------------------------1-1-1-1-1-1--1-1-1-1-1-1--|

TOP cifras de Girl Dead Monster

  1. My Song
  2. Highest Life
  3. Shine Days

Pela Web