Cifras Web
Girlschool

Race With The Devil

Girlschool

5 acessos

Tabbed by: Penno d:.>
Email: *

Tuning: Normal- EADGBE

* this proves they exist

Intro

e|---------------------------------------------------------------------------|
B|---------------------------------------------------------------------------|
G|--9----9s7s5s3-------------------------------------------------------------|
D|--9----9s7s5s3-------------------------------------------------------------|
A|--7----7s5s3s1-------------------------------------------------------------|
E|---------------------------------------------------------------------------|


Main Riff

e|-------5-------------------------------------------------------------------|
B|----------8p5--------------------------------------------------------------|
G|-----------------7p5-------------------------------------------------------|
D|-----------------------7--7~-----------------------------------------------|
A|---------------------------------------------------------------------------|
E|---------------------------------------------------------------------------|


The licks between the riffs are all basically improvised, they're all in the mior blues 
I'm not gonna write them out cuz they are all different, just improvise them going up 
down the scale.


Verse

e|-------------------------------------------------------------------------------|
B|-------------------------------------------------------------------------------|
G|---7------------5------------7-------------------------------------------------|
D|---7------------5------------7-------------------------------------------------|

A|---5-12 times---3-8 times----5-8 times-------------------------------------E|--|

Bridge

e|---------------------------------------------------------------------------|
B|---------------------------------------------------------------------------|
G|---7--7s9----9s5----5s12---------------------------------------------------|
D|---7--7s9----9s5----5s12---------------------------------------------------|
A|---5--5s7----7s3----3s10---------------------------------------------------|
E|---------------------------------------------------------------------------|


Riff played over Bridge

e|---------------------------------------------------------------------------|
B|----8p5--------------------------------------------------------------------|
G|-----------7p5-----------7~~-----------------------------------------------|
D|-------------------5h7-----------------------------------------------------|
A|---------------------------------------------------------------------------|
E|---------------------------------------------------------------------------|



| h  hammer-on
| p  pull-off
| ~  vibrato
| +  harmonic
| x  Mute note

Im sure this is right but if you have any comments or suggestions, please email me @ *

TOP cifras de Girlschool

  1. Dont Call It Love
  2. Hit And Run
  3. All Day All Night
  4. Screaming Blue Murder
  5. Wild At Heart
  6. Mad Mad Sister
  7. Wildlife
  8. Race With The Devil
  9. Cmon Lets Go
  10. Demolition Boys

Pela Web