Cifras Web
Gislaine e Suelen

A Verdade

Gislaine e Suelen

81 acessos

Intro 2x: Am F Dm E 

   Am                                F
A verdade todos falam que querem a verdade
                         G
Mais eu vou falar com sinceridade
                                   Dm
Muitos preferem se enganar com a mentira
           G       E4   E
Por não suportar a verdade
         Am                             F
E disse Jesus sou caminho a verdade e a vida
                                G
E ninguém vem ao Pai senão por mim
                            Am
Ninguém vem ao Pai sem a verdade


Solo 1: F Dm E
E|----------------------|------------------------------|
B|----------------8b10--|--3-5-5b6-6br5-3--------10b12-|
G|----5-4-5--7----------|---------------7b9------------|
D|-7--------------------|------------------------------|
A|----------------------|------------------------------|
E|----------------------|------------------------------|


    Am
A verdade é que Jesus esta voltando
                       F
E muita gente esta brincando com a sua salvação
    G
A verdade é que estamos alegando
                        Dm                      G
Amar um Deus que nunca vimos sem amar o nosso irmão
    Am
A Verdade é que pregamos santidade
               F
Com muita eloquência mais sem santificação
    Dm
A verdade é que tem gente confundindo
               E4                E
Ministério e chamado com alto promoção
    Am
A Verdade é que crucificamos Pedro
                    F
Por submergir nas ondas e a incredulidade de Tomé
         Dm
Mais na verdade nos falta sinceridade
               G
Para pedir a Cristo que aumente a nossa fé

      Am
Se o povo quisesse a verdade
             F
Aceitaria a Cristo e não a barabas
       G
Se o Amor fosse maior que o dinheiro
              C
Judas não entregaria aquele quem dizia amar
       Am
Se a verdade fosse a prioridade
              F
Até nossas mensagens teriam que mudar
    Dm
Calariamos a nossa vontade
       F                       G
E Ouviríamos o que Deus quer falar
     Am                             F
A Verdade ninguém vem a mim sem a verdade
                                  G
Eu quero um povo que me ame de verdade
         F
O que adianta o erguer de suas mãos
             Dm                    G
se na sua adoração não houver sinceridade

    Am
A Verdade no falar a verdade no ofertar
     F
No fechar dos olhos para o meu nome adorar
  G
Seja verdadeiro quando assumir o meu altar
       F                  G
E não fale em meu nome se eu não mandar
     Am
A Verdade na palavra a verdade no louvor
     F
A Verdade no orar e ao usar o seus dons
     Dm
Pra chegar até mim tem que entrar pelo caminho
   G               F        G
Receber a vida e viver a verdade
            Am
Jesus é a verdade


Solo 2: F G C G Dm E
E|-----------------------------------------|
B|------------------------12b13r12---------|
G|--7b9--5-4-5-7---7---------------12------|
D|---------------5-------------------12----|
A|-----------------------------------------|
E|-----------------------------------------|



E|-----------------------------------------|
B|-13b15-----------------------------------|
G|--------12p10p9--12p10p9--12p10p9--12p10-|
D|-----------------------------------------|
A|-----------------------------------------|
E|-----------------------------------------|



E|-----------20p19p17-19-------------------|
B|---15b17---------------------------------|
G|-----------------------------------------|
D|-----------------------------------------|
A|-----------------------------------------|
E|-----------------------------------------|


Se o povo quisesse a verdade...

TOP cifras de Gislaine e Suelen

  1. A Verdade
  2. Desperta
  3. O Mundo Vai Ouvir
  4. Ele Me Viu

Pela Web