Cifras Web
Godspeed You! Black Emperor

Moya Solo

Godspeed You! Black Emperor

11 acessos

Album:	Slow Riot For New Zero Kanada

Tab by Johan Soräng (*)
Thanks goes out to Ben Wilkinson (*) for figuring out the tuning.
They seem to use it alot, if not exclusively.


I've tabbed out the chords played between 3:40-4:58, after the violin/cello intro.


They might use the F string more than ive tabbed, but you get the picture.

[3:40]

Db ------------------------------------------------|
Bb --0--------2--------12-------8--------9---------|
F  --0--------X--------X--------X--------X---------|
Db --0--------2--------12-------9--------11--------|
Bb --------0--------0--------0--------0--------0---|
Eb ------------------------------------------------|

     1  2  3  1  2  3  1  2  3  1  2  3  1  2  3  -|



Db ------------------------------------------------|
Bb --7--------8--------5--------3--------2---------|
F  --X--------X--------X--------X--------X---------|
Db --7--------9--------5--------4--------2---------|
Bb --------0--------0--------0--------0--------0---|
Eb ------------------------------------------------|

     1  2  3  1  2  3  1  2  3  1  2  3  1  2  3  -|



Db ------------------------------------------------|
Bb --0--------2------------------------------------|
F  --0--------X------------------------------------|
Db --0--------2------------------------------------|
Bb --------0--------0------------------------------|
Eb ------------------------------------------------|

     1  2  3  1  2  3  1  2  3  1  2  3  1  2  3  -|

Repeat x3

TOP cifras de Godspeed You! Black Emperor

  1. Rockets Fall On Rocket Falls Intro
  2. Moya Solo
  3. Monheim
  4. East Hastings
  5. Rockets Fall On Rocket Falls

Pela Web