Cifras Web
Goldfinger

It Isnt Just Me

Goldfinger

12 acessos

  this is a fairly easy song..standerd tuning..if u have any corrections or watever
email me at *...enjoy!
 

e|----------------------------------------------------------3-------3--|
b|--------0--------0---------1---------1---------1----------0-------0--|
g|--------0--------0---------2---------2---------2---------------------|
d|--2---2---2--2-2----2------------------2-0--0------------------------|
a|----------------------0--0---0--0--0---------------------------------|
e|--------------------------------------------------2--3-3-----3-3-3---|



 |---------------------------------------------------------------------|
 |--------1---------1--------0----------0--------1--------1---------0--|
 |--------2---------2--------0-------------------2--------2---------0--|
 |--3--3----3--3--3----2--2-----2--2--2---2--3-3---3--3-3-----------2--|
 |---------------------------------------------------------------------|
 |---------------------------------------------------------------------|


 |---7---7----5---2---3---|--------------------------------------------|
 |---5---5----3---3---3---|--------------------------------------------|
 |------------------------|-------------2-------0-----------2----------|
 |------------------------|--2-----7----0-------x----2------0----------|
 |------------------------|--2-----7----0-------2----0--3--------------|
 |------------------------|--0-----5------------0----0--5--------------|
  figure out the number of reapeats an stuff urself

TOP cifras de Goldfinger

  1. Mable
  2. Smp
  3. Wasted
  4. Miles Away
  5. Dad
  6. Meable
  7. Pictures
  8. Answers Intro
  9. Ghouls Night Out
  10. Free Me

Pela Web