Cifras Web
Goukisan

Guitar Vs. Piano

Goukisan

8 acessos

1ª Parte:

E|:-------------------|-------------------|-------------------|
B|:-------------------|-------------------|-------------------|
G|:--------2---2------|------2---4---2-0--|--------------2----|
D|:--2-2-5---2---5-2--|--2-2---2---2------|------2---5--------|
A|:-------------------|-------------------|--3-3---3---3---3--|
E|:-------------------|-------------------|-------------------|



E|--------------------:|
B|--------------------:|
G|------4---2---------:|
D|--------------4-5---:|  (4x)
A|--5-5---5---5-------:|
E|--------------------:|


Segunda Parte:

E|:-------------------|-------------------|-------------------|
B|:-------------------|-------------------|-------------------|
G|:------4---2-0------|--2---5---4-0------|--2-4---4-2-4------|
D|:--------------4-5--|--------------4-2--|------2-------5-4--|
A|:--3-3---3----------|----3---3----------|-------------------|
E|:-------------------|-------------------|-------------------|



E|-------------------|-------------------|-------------------|
B|-------------------|-------------------|-------------------|
G|-------------------|-------------------|-------------------|
D|--2-2-5-2-2-4-2-2--|--2-2-5-2-2-4-2-2--|--2-2-5-2-2-4-2-2--|
A|-------------------|-------------------|-------------------|
E|-------------------|-------------------|-------------------|



E|---------------------:|
B|---------------------:|
G|------2---4---2------:|
D|--5-2---2---2---2-5--:| (2x)
A|---------------------:|
E|---------------------:|


Terceira Parte:

E|--------------------|--------------------|
B|--------------------|--------------------|
G|--------------------|--------------------|
D|--2----4----5----7--|--10-9-7-9-7-5-4-0--|
A|--------------------|--------------------|
E|--------------------|--------------------|



E|--------------------|--------------------|
B|--------------------|--------------------|
G|--------------------|--------------------|
D|--2-2-5-2-2-4-2-2---|--2-2-5-2-2-4-2-2---|
A|--------------------|--------------------|
E|--------------------|--------------------|



E|--------------------|--------------------|
B|--------------------|--------------------|
G|--------------------|---------7-5-4------|
D|--2----4----5----7--|--10-9-7-------4-5--|
A|--------------------|--------------------|
E|--------------------|--------------------|



E|--------------------|--------------------|
B|--------------------|--------------------|
G|--------------------|--------------------|
D|--2-2-5-2-2-4-2-2---|--2-2-5-2-2-4-2-2---|
A|--------------------|--------------------|
E|--------------------|--------------------|


Quarta Parte:

E|--------------------|--------------------|
B|--------------------|--------------------|
G|----------------2---|--4-0---4-2---0-2---|
D|--5-----5---2-5-----|------2-----2-------|
A|----3-3---3---------|--------------------|
E|--------------------|--------------------|



E|--------------------|--------------------|
B|--------------------|--------------------|
G|----------------2---|--4-2-4-5-4-0---0---|
D|--5-----5---2-5-----|--------------4-----|
A|----3-3---3---------|--------------------|
E|--------------------|--------------------|



E|--------------------|--------------------|
B|--------------------|--------------------|
G|--------------------|--2-----0-----------|
D|--5-----5---0-2-4---|------------0-2-4---|
A|----3-3---3---------|----3-3---3---------|
E|--------------------|--------------------|



E|--------------------|--------------------|
B|--------------------|--------------------|
G|--2-----4-----------|--4-----5---4---2---|
D|------------2-4-5---|--------------------|
A|----3-3---3---------|----3-3---3---------|
E|--------------------|--------------------|



E|--------------------|--------------------|
B|--------------------|--------------------|
G|--------------------|--------------------|
D|--5-----5---5-4-5---|--5-----5---5-4-0---|
A|----3-3---3---------|----3-3---3---------|
E|--------------------|--------------------|


Primeira Parte:

E|:-------------------|-------------------|-------------------|
B|:-------------------|-------------------|-------------------|
G|:--------2---2------|------2---4---2-0--|--------------2----|
D|:--2-2-5---2---5-2--|--2-2---2---2------|------2---5--------|
A|:-------------------|-------------------|--3-3---3---3---3--|
E|:-------------------|-------------------|-------------------|



E|--------------------:|
B|--------------------:|
G|------4---2---------:|
D|--------------4-5---:|  (8x)
A|--5-5---5---5-------:|
E|--------------------:|


Piano Solo:
(guitarra reentra em torno de 2:39)


E|:--------------------|--------------------|
B|:--------3-5-3-------|--8----6----5----6--|
G|:--2-4-5-------5-----|--------------------|
D|:--------------------|--------------------|
A|:--------------------|--------------------|
E|:--------------------|--------------------|



E|--------------------|-----------------------|
B|--5---5-------------|--5----5----6-5--------|
G|--------7-5-4-5-7---|----------------7-4-5--|
D|--------------------|-----------------------|
A|--------------------|-----------------------|
E|--------------------|-----------------------|



E|--------------------|--------------------|
B|--------3-5-3-------|--6----5----3----6--|
G|--2-4-5-------5-----|--------------------|
D|--------------------|--------------------|
A|--------------------|--------------------|
E|--------------------|--------------------|



E|--------------------|-----------------------:|
B|--5--5-5-6-5--------|--5----5----6-5--------:|
G|-------------7-5-7--|----------------7-4-5--:|
D|--------------------|-----------------------:|   (4x)
A|--------------------|-----------------------:|
E|--------------------|-----------------------:|


Ruptura....

Então isso....


E|-------------------|
B|--3-5-3------------|
G|--------5-4-5-4-0--|
D|-------------------|
A|-------------------|
E|-------------------|


Segunda Parte:

E|:-------------------|-------------------|-------------------|
B|:-------------------|-------------------|-------------------|
G|:------4---2-0------|--2---5---4-0------|--2-4---4-2-4------|
D|:--------------4-5--|--------------4-2--|------2-------5-4--|
A|:--3-3---3----------|----3---3----------|-------------------|
E|:-------------------|-------------------|-------------------|



E|-------------------|-------------------|-------------------|
B|-------------------|-------------------|-------------------|
G|-------------------|-------------------|-------------------|
D|--2-2-5-2-2-4-2-2--|--2-2-5-2-2-4-2-2--|--2-2-5-2-2-4-2-2--|
A|-------------------|-------------------|-------------------|
E|-------------------|-------------------|-------------------|



E|---------------------:|
B|---------------------:|
G|------2---4---2------:|
D|--5-2---2---2---2-5--:|  (2x)
A|---------------------:|
E|---------------------:|


Terceira Parte:

E|--------------------|--------------------|
B|--------------------|--------------------|
G|--------------------|--------------------|
D|--2----4----5----7--|--10-9-7-9-7-5-4-0--|
A|--------------------|--------------------|
E|--------------------|--------------------|



E|--------------------|--------------------|
B|--------------------|--------------------|
G|--------------------|--------------------|
D|--2-2-5-2-2-4-2-2---|--2-2-5-2-2-4-2-2---|
A|--------------------|--------------------|
E|--------------------|--------------------|



E|--------------------|--------------------|
B|--------------------|--------------------|
G|--------------------|---------7-5-4------|
D|--2----4----5----7--|--10-9-7-------4-5--|
A|--------------------|--------------------|
E|--------------------|--------------------|



E|--------------------|--------------------|
B|--------------------|--------------------|
G|--------------------|--------------------|
D|--2-2-5-2-2-4-2-2---|--2-2-5-2-2-4-2-2---|
A|--------------------|--------------------|
E|--------------------|--------------------|


Quarta Parte:

E|--------------------|--------------------|
B|--------------------|--------------------|
G|----------------2---|--4-0---4-2---0-2---|
D|--5-----5---2-5-----|------2-----2-------|
A|----3-3---3---------|--------------------|
E|--------------------|--------------------|



E|--------------------|--------------------|
B|--------------------|--------------------|
G|----------------2---|--4-2-4-5-4-0---0---|
D|--5-----5---2-5-----|--------------4-----|
A|----3-3---3---------|--------------------|
E|--------------------|--------------------|



E|--------------------|--------------------|
B|--------------------|--------------------|
G|--------------------|--2-----0-----------|
D|--5-----5---0-2-4---|------------0-2-4---|
A|----3-3---3---------|----3-3---3---------|
E|--------------------|--------------------|



E|--------------------|--------------------|
B|--------------------|--------------------|
G|--2-----4-----------|--4-----5---4---2---|
D|------------2-4-5---|--------------------|
A|----3-3---3---------|----3-3---3---------|
E|--------------------|--------------------|



E|--------------------|--------------------|
B|--------------------|--------------------|
G|--------------------|--------------------|
D|--5-----5---5-4-5---|--5-----5---5-4-0---|
A|----3-3---3---------|----3-3---3---------|
E|--------------------|--------------------|


Primeira Parte:

E|:-------------------|-------------------|-------------------|
B|:-------------------|-------------------|-------------------|
G|:--------2---2------|------2---4---2-0--|--------------2----|
D|:--2-2-5---2---5-2--|--2-2---2---2------|------2---5--------|
A|:-------------------|-------------------|--3-3---3---3---3--|
E|:-------------------|-------------------|-------------------|


E|--------------------:|
B|--------------------:|
G|------4---2---------:|
D|--------------4-5---:|  (8x)
A|--5-5---5---5-------:|
E|--------------------:|

TOP cifras de Goukisan

  1. Guitar Vs. Piano

Pela Web