Cifras Web
Grand Funk

Bad Time

Grand Funk

6 acessos

       C                            Am
I'm in love with  the girl that I'm talkin' about
       F                       Dm
I'm in love with a girl that I can't live without
       F                       G
I'm in love but I sure picked a bad time . . .
         Dm      G           Dm     G     Dm    G
To be in love . . . to be in love.

Dm                      G                     Dm          G
But let her be somebody else's queen, I don't wanna know about it
        Dm                   G
There's too many others that know what I mean
    Dm                          G
And that's why I gotta live without it.

Refrão:
       C                      Am
I'm in love with the girl I'm talkin' about
       F                  Dm
I'm in love with a girl I can't live without
       F                        Dm
I'm in love but I feel like I'm livin' it out
       F                          G                 Dm   G
I'm in love but I must'a picked a bad time to be in love. . . a
Dm                G            Dm                G
bad time to be in love . . . a bad time to be in love . . . a
Dm                G
bad time to be in love.

Dm                     G
All the stories comin' back to me
         Dm                             G
About my friends and the people I don't wanna see
    Dm                          G
The things they say I know just couldn't be true
      Dm                      G
Least not till I hear it from you

(Refrão)

(Pausa Na Guitarra)

(Refrão)

   Dm  G     Dm    G         Dm              G
E|-----------------------------------------------------|
B|--------------5---5---5-6-8-8-6-5-6-5---5---5-6------|
G|--5-4---4-5-5---7---7-----------------7---7----------|
D|7-----5----------------------------------------------|
A|-----------------------------------------------------|
E|-----------------------------------------------------|

   Dm            G
E|----------------------------------------------------------|
B|8-7-6---6-------------------------------------------------|
G|------7---7-5-4-------------------------------------------|
D|----------------------------------------------------------|
A|----------------------------------------------------------|
E|----------------------------------------------------------|

TOP cifras de Grand Funk

  1. Bad Time Solo
  2. Bad Time
  3. Cant Be Too Long
  4. She's Some Kind Of Wonderful
  5. To Get Back In

Pela Web