Cifras Web
Grarge

Jackin Off W Bloody Peanut Butter

Grarge

8 acessos

Tabbed by Jake Strange.

G|-------------------------------------|
D|-------------5--8-8-8-8-7-5----------|
A|-----7-----7-------------------------|
E|--0-----0----------------------------|

Let all notes ring out.

G|---------------------------------7--|
D|------------------------------------|
A|-----7-----8------5-----------------|
E|--0-----0------0------------0-------|

This is most of it. This song differs alot each time
it is played. But this is the basic part of the bassline.

TOP cifras de Grarge

  1. Jackin Off W Bloody Peanut Butter
  2. Bible Salad
  3. Poopy

Pela Web