Cifras Web
Grarge

Poopy

Grarge

7 acessos

Not a studio recording....yet.

main part:

e|-----------------------------------------------------|
B|-----------------------------------------------------|
G|-----------------------------------------------------|
D|--------------------7--------------------------------|
A|------------8--------------8---------------play 3x --|
E|--0----0h6------0---------------0------6~------------|continued below...




e|----------------------------------------------|
B|----------------------------------------------|
G|----------------------------------------------|
D|--------------------7-----------10-----9------|
A|------------8--------------8----10-----9------|
E|--0----0h6------0----------------8-----7------|



Chorus (chords):

e|---------------||-------------------|
B|---------------||-------------------|
G|---------------||-------------------|
D|---------------||---5---3----2------|
A|--6----5---2---||---5---3----2------|
E|--4----3---0---||---3---1----0------|
       ok, PM 1st measure & play it 2x, then

       play 2nd meas. 2x as well (in that order)

PM=palm mute
This song has been played several times 'live' &
also during rehearsals but doesn't appear on any
official releases...yet.
There's a rumor of an album of unreleased songs
coming out sometime soon (so I hear).

TOP cifras de Grarge

  1. Jackin Off W Bloody Peanut Butter
  2. Bible Salad
  3. Poopy

Pela Web