Cifras Web
Gregorian Chant

Credo 3

Gregorian Chant

11 acessos

From: Rick Kephart 


Creed                CREDO III (De Angelis)                  XVII Century

Tablature by Rick Kephart  *  http://*~rmk

"." after a note means hold. "/" means hammer-on. "\" means pull-off.
Keep the notes (except for the dotted notes) evenly spaced.

e|----------------------------|----------------------------|
b|----------------------------------------------------------|
g|--0------------------------------------0------------------|
D|-----2-----3--2--2\0----------2/3--2------2------0--------|
A|*|
E|----------------------------------------------------------|

   Cre-do in u-num De ---- um.  Pa--trem om-ni-po-ten-tem,


e -----------------------------|---------------------------------|
b -------------------------------------------1--------------------|
g *|
D -----2---3------------------------------------------------------|
A --3-------------------------------------------------------------|
E ----------------------------------------------------------------|

   fac-to-rem cae-li et ter-rae, vi-si-bi-li-um  om------ni-um


e ---------------------------|----------------------------------------|
b ---------------------------------------------------------------------|
g --0--------------------------0--0------------------------------------|
D *|
A *|
E ---------------------------------------------------------------------|

   
et in-vi-si-bi-----li-um.   Et in u-num Do-mi-num Je-sum Christ-um,



e -------------------------------|----------------------------|
b -------------------------------------------------------------|
g *|
D -2--2--2--3--0--------------------2--0--3--3--2-----0--------|
A *|
E -------------------------------------------------------------|

   Fi-li-um De-i  u- ni-ge-ni-tum.  Et ex Pa-tre na-----tum


e -------------------------------|-----------------|----------------------|
b -------------------------------------------------------------------------|
g -------0--2--0--------------------0--0--0--------------------------------|
D -2--2-----------2-----0--0-----------------2-----------0---0--2--0-------|
A *|
E -------------------------------------------------------------------------|

   an-te om-ni-a  sae-----cu-la.    De-um de De-o,    lu-men de lu-mi-ne,


e -------------------------------|-------------------------------|
b ---------------1--0---------------------------------------------|
g *|
D *|
A *|
E ----------------------------------------------------------------|

   De-um ve-rum de  De-o  Ve-ro.    Ge-ni-tum, non fac-----tum,


e ------------------------------|-------------------------------|
b -------------------------------------1---0---------------------|
g *|
D --2---2----------------3-----------------------------3---------|
A ---------------------------------------------------------------|
E ---------------------------------------------------------------|

   
con-sub-stan-ti-a-lem Pa-tri:  per quem om-ni-a fac-ta sunt.



e ----------------------------|-----------------------------------|
b -----------------------------------------------------------------|
g *|
D -----------2---2--------------------------------0---2--3---------|
A -------------------------------3---3----3---3--------------------|
E -----------------------------------------------------------------|

   Qui prop-ter nos ho-mi-nes,   et prop-ter nos-tram sa-lu-tem


e --------------------------|-------------------------------------------|
b ------0---1------------------------------------------------------------|
g --2-----------4\*|
D -------------------------------2--2-----0-------2--2---2--2------------|
A *|
E -----------------------------------------------------------------------|

    de-scen-dit de  cae-lis. Et in-car-na-tus est de Spi-ri-tu Sanc-to


e ------------------------|-------------------------|
b -----1--0------------------------------------------|
g *|
D -------------------------------2--2---3---3--------|
A ----------------------------3----------------------|
E ---------------------------------------------------|

    Ex Ma-ri-a Vir-gi-ne:     Et ho-mo fac-tus est.



e --------------------------------------------|-------------------------|
b -----------------------------------------------------------------------|
g ------------------------------------0/*|
D ---2--0/*|
A --------------3-----3---3----------------------------------------------|
E -----------------------------------------------------------------------|


    
Cru-ci--fix-------us  e-ti-am pro no--bis:  sub Pon-ti-o Pi-la-to



e ---------------------------------|-----------------------------------|
b ----------------------------------------------------------------------|
g *|
D -------2------3--2-----0--0-----------------------------2--3----------|
A *|
E ----------------------------------------------------------------------|

    pas-sus, et se-pult----tus est.  Et re-sur-rex-it ter-ti-a  di-e


e --------------------------|---------------------------------|
b ----------------------------------------0--1-----------------|
g -----------------------------------0/2---------4\*|
D *|
A *|
E -------------------------------------------------------------|

   se-cun-dum Scrip-tu-ras.    Et a-scen-dit in  cae----lum:


e ------------------------------------|---------------------------|
b ----------------------------------------------------------------|
g --0--0---0-----------------------------0--0--0------------------|
D ------------2---2---3--2-----0------------------2---2---------0-|
A *|
E ----------------------------------------------------------------|

    se-det ad dex-ter-am Pa------tris.  Et i-te-rum ven-tu-rus est


e ---------------|-----------------------------------|
b ------------------------------1--0------------------|
g *|
D --0---2--0------------------------------------------|
A *|
E ----------------------------------------------------|

   cum glo-ri-a     ju-di-ca-re vi-vos et mor-tu-os:

e ---------------------------------|--------------------------------------|
b -----------------------------------1--1----------1-----------------------|
g *|
D *|
A *|
E -------------------------------------------------------------------------|

    cu-jus re-gni non er-it fi-nis.  Et in Spi-ri-tum Sanc-tum, Do-mi-num,


e ----------------------|------------------------------------------|
b ------------------------------------------------------------------|
g *|
D -----2----------------------3------2---3--0--2--3--2-----0--------|
A *|
E ------------------------------------------------------------------|

    
et vi-vi-fi-can-tem:  qui ex Pa-tre, Fi-li-o-que pro---ce-dit.



e ----------------------------|--------------------|-------------------------|
b -------------------------------------1--0-----------------------------------|
g *|
D ------2---------2--3--2---------------------------------2---2---------------|
A --3-------------------------------------------------3-----------------------|
E ----------------------------------------------------------------------------|

   Qui cum Pa-tre et Fi-li-o    si-mul a-do-ra-tur,   et con-glo-ri-fi-ca-tur:


e -----------------------------------|---------------------------------|
b ----------------------------------------------------------------------|
g *|
D *|
A *|
E ----------------------------------------------------------------------|

   qui lo-cu-tus est per Pro--phe-tas. Et un-am sanc-tam ca-tho-li-cam


e ---------------------------------|---------------------------------|
b ------------------------------------------0--1-----1--0-------------|
g *|
D *|
A --------------------------------------------------------------------|
E --------------------------------------------------------------------|

   
et a-po-sto-li-cam Ec-cle-si-am.  Con-fi-te-or un-um bap---tis-ma



e ----------------------------------|-----------------------------------|
b ----------------------------------------------------------------------|
g ------------0------------------------0--0----------0---0---0--0--2--0-|
D *|
A *|
E ----------------------------------------------------------------------|

    
in re-mis-si-o-nem pec-ca-to-rum.  Et ex-pec-to  re-sur-rec-ti-o-nem



e ---------------|---------------------------------|
b -----------------1--------------------------------|
g --------------------4\*|
D *|
A --------------------------------------------------|
E --------------------------------------------------|

   mor-tu-or-um.   Et vi--tam ven-tu-ri sae-cu-li.


e ----------------------------------------------------------|
b ------------------1--0-------------------------------------|
g *|
D *|
A *|
E -----------------------------------------------------------|

    A--------------------------------------------------men.

TOP cifras de Gregorian Chant

  1. Regina Caeli
  2. Sanctus Xvii
  3. Kyrie Chant
  4. Da Pacem
  5. Salve Regina
  6. Credo 3
  7. Ave Regina

Pela Web