Cifras Web
Gregorian Chant

Kyrie Chant

Gregorian Chant

16 acessos

From: Rick Kephart 


                                     KYRIE

Mass XI                                                     10th Century

Tablature by Rick Kephart  http://*~rmk

"." after a note means hold. "/" means hammer-on. "\" means pull-off.
Keep the notes (except for the dotted notes) evenly spaced.


e|-----------------|-----------------------------------|
b|-----------------------------------------------------|
g|--2/3--2\*|
D|*|
A|-----------------------------------------3-----------|
E|-----------------------------------------------------|

   Ky----ri---e      e---------------------le-i-son     [3x]


e|--------------------------|-----------------------------------|
b|*|
g|--2\0--------------2\*|
D|----------------------------3--------------3\2\*|
A|--------------------------------------------------3-----------|
E|--------------------------------------------------------------|

   Chris-te                   e---------------------le-i-son    [3x]


e|-----------------|-----------------------------------|
b|-----------------------------------------------------|
g|--2/3--2\*|
D|*|
A|-----------------------------------------3-----------|
E|-----------------------------------------------------|

   Ky----ri---e      e---------------------le-i-son    [2x]


e|-------------------------------------|-------------------------------------|
b|---------------------------------------------------------------------------|
g|*|
D|--0/3\*|
A|---------3/5-----------------5\3-------------------------------3-----------|
E|---------------------------------------------------------------------------|

   
Ky------ri---e                          e----------------------le-i-son



Kyrie eleison   {Lord, have mercy}
Christe eleison   {Christ, have mercy}
Kyrie eleison   {Lord, have mercy}

TOP cifras de Gregorian Chant

  1. Regina Caeli
  2. Sanctus Xvii
  3. Kyrie Chant
  4. Da Pacem
  5. Salve Regina
  6. Credo 3
  7. Ave Regina

Pela Web