Cifras Web
Gregorian Chant

Salve Regina

Gregorian Chant

13 acessos

From: Rick Kephart 


"." after a note means hold. "/" means hammer-on. "\" means pull-off.


e|--------------------------------------------|-----------------|--|
b|----------------------1---0-------------------1------------------|
g|*|
D|*|
A|--3--------------------------------------------------------------|
E|-----------------------------------------------------------------|
   Sal-ve Re-gi-na, Ma-ter mi-se-ri-cor-di-ae: Vi-ta dul-ce-do-----|


e ---------------------------|------------------|--------------------------|--|
b ------------------------------------0--1-------------0--2--0----------------|
g *|
D ---2---3-------2---2\0------------------------------------------------------|
A *|
E ----------------------------------------------------------------------------|
    et spes nos-tra, sal-ve.   Ad te cla-ma-mus,   ex-------------------------|su-les fi-li-i He-vae.


e ----------------------|----------------------|----------------------------|--|
b --1---------------------------------1----------------------------------------|
g *|
D *|
A *|
E -----------------------------------------------------------------------------|
-------------------------------------------------------------------------------|    Ad te su-spi-ra-mus,  ge-men-tes et flen-tes in hac la-cri-ma-rum val-le.


e ---------------------------------|---------------------------------------|--|
b *|
g *|
D *|
A ----------------------------------------------------------------------------|
E ----------------------------------------------------------------------------|
------------------------------------------------------------------------------|    E-ia er-go, Ad-vo-ca-ta nos-tra, il-los tu-os mi-se-ri-cor-des o-cu-los


e --------------------|---------------------------------------------------|--|
b *|
g *|
D ---3--2--0--2\0------------------------------------------------------------|
A *|
E ---------------------------------------------------------------------------|
    ad nos con-ver-te.  Et Je------------------------------------------------|sum, be-ne-dic-tum fruc-tum ven-tris tu-i,


e -------------------------------------------|--|
b ---------------1---0--------------------------|
g *|
D *|
A --3-------------------------------------------|
E ----------------------------------------------|
    no-bis post hoc ex--------------------------|si-li-um   o-sten-de.


e ----------------|------------------|-------------------|-----------------|--|
b ------------------------1\*|
g -------0----------0/2/4-----2\*|
D --2/*|
A *|
E ----------------------------------------------------------------------------|
    O     cle-mens, O         pi--a,   O          dul-cis, Vir-go Ma-ri-------|a


Hail Holy Queen, Mother of Mercy, our life, our sweetness, and our hope.
To thee do we cry, poor, banished children of Eve.
To thee do we send up our sighs,
mourning and weeping in this valley of tears.
Turn then, o most gracious advocate,
thine eyes of mercy towards us,
and after this our exile show unto us the blessed Fruit of thy womb, Jeus.
O clement, O loving, O sweet Virgin Mary.

Tablature by Rick Kephart  *  http://*~rmk

TOP cifras de Gregorian Chant

  1. Regina Caeli
  2. Sanctus Xvii
  3. Kyrie Chant
  4. Da Pacem
  5. Salve Regina
  6. Credo 3
  7. Ave Regina

Pela Web