Cifras Web
Gregorian Chant

Sanctus Xvii

Gregorian Chant

21 acessos

From: Rick Kephart 

SANCTUS XVII     11th Century

Tablature by Rick Kephart  *  http://*~rmk

"." after a note means hold. "/" means hammer-on. "\" means pull-off.

e|--------------|----------------|-------------|---------------------|
b|*|
g|*|
D|*|
A|-------------------------------------------------------------------|
E|-------------------------------------------------------------------|
   Sanc------tus, Sanc-------tus, Sanc------tus, Do-mi-nus De--------|us

                                                           |*|

e -------0/1----------------|----------------------------------------|--|
b --1/3-------3\1--3\*|
g -------------------------------3--2/3-----5\3--0--2--0/2--------------|
D ----------------------------------------------------------3/5\*|
A ----------------------------------------------------------------------|
E ----------------------------------------------------------------------|

    
Sa-------------ba--oth.  Ple-ni sunt    cae-----li  et  ter---------|ra


                 |*|

e ----------------------------|
b -------------1--1/3\*|
g -----2\0--0-----------------|
D --3-------------------------|
A ----------------------------|
E ----------------------------|

   glo-ri---a     tu----------|a

                                            |*|

e -------0/1------------------------------------------|--|
b --1/3-------3\1--3\*|
g ----------------------2/3-----3\0--2--0/2--------------|
D -------------------------------------------3/5\*|
A -------------------------------------------------------|
E -------------------------------------------------------|

    
Ho-------------sa---na           in ex---cel---------|sis



e ---------------------------------|---------------------------------|
b -------------1--1--1--1/3\*|
g -----2\0--0-----------------------------2\0--0---------------------|
D --3----------------------------------3-----------------------------|
A -------------------------------------------------------------------|
E -------------------------------------------------------------------|

    
Be-ne---dic-tus qui ve----nit     in  no---mi---ne Do------------|mi-ni


                                            |*|

e -------0/1------------------------------------------|--|
b --1/3-------3\1--3\*|
g ----------------------2/3-----3\0--2--0/2--------------|
D -------------------------------------------3/5\*|
A -------------------------------------------------------|
E -------------------------------------------------------|

    
Ho-------------sa---na           in ex---cel---------|sis


Sanctus, Sanctus, Sanctus  {Holy, Holy, Holy}
Dominus Deus Sabaoth       {Lord God of Hosts}
Pleni sunt caeli et terra  {Heaven and Earth are filled}
Gloria tua                 {with your glory}
Hosanna in excelsis        {Hosanna in the highest}
Benedictus qui venit       {Blessed is He Who comes
in Nomine Domini           {in the Name of the Lord}
Hosanna in excelsis        {Hosanna in the highest}

TOP cifras de Gregorian Chant

  1. Regina Caeli
  2. Sanctus Xvii
  3. Kyrie Chant
  4. Da Pacem
  5. Salve Regina
  6. Credo 3
  7. Ave Regina

Pela Web