Cifras Web
Grim Reaper

Rock You To Hell

Grim Reaper

6 acessos

Tuning: Standard


e|-----------------|
B|-----------------|
G|--9--------------|
D|--7--------------|
A|--7--------------|
E|-----------------|


Riff 1 (intro)

e|--------------------------------------------------|
B|--------------------------------------------------|
G|--9--9-----8-----9--------9--9-----8-----9--------|
D|--7--7-----7-----7--------7--7-----7-----7--------|
A|--------0-----0-----0--0--------0-----0-----0--0--|
E|--------------------------------------------------|



e|--------------------------------------------------|
B|--------------------------------------------------|
G|--5--5-----4-----5--------7--7-----6-----7--------|
D|--3--3-----3-----3--------5--5-----5-----5--------|
A|--------0-----0-----0--0--------0-----0-----0--0--|
E|--------------------------------------------------|



e|--------------------------------------------------|
B|--------------------------------------------------|
G|--9--9-----8-----9--------9--9-----8-----9--------|
D|--7--7-----7-----7--------7--7-----7-----7--------|
A|--------0-----0-----0--0--------0-----0-----0--0--|
E|--------------------------------------------------|



e|-------------------------------------------|
B|-------------------------------------------|
G|--5--5-----4-----5--------7----------------|
D|--3--3-----3-----3--------5----------------|
A|--------0-----0-----0--0-------------------|
E|-------------------------------------------|


Riff 2 (verse 1) x2

e|-----------------------------------------------------------------------------|
B|-----------------------------------------------------------------------------|
G|--9-----------9-----------5--5-----4-----5--------5-----------5--------4-----|
D|--7-----------7-----------3--3-----3-----3--------3-----------3--------2-----|
A|-----0--0--0-----0--0--0--------0-----0-----0--0-----0--0--0-----0--0--------|
E|-----------------------------------------------------------------------------|



e|-----------------------------------------------------------------------------|
B|-----------------------------------------------------------------------------|
G|--9-----------9-----------5--5-----4-----5--------5-----------5--------7-----|
D|--7-----------7-----------3--3-----3-----3--------3-----------3--------5-----|
A|-----0--0--0-----0--0--0--------0-----0-----0--0-----0--0--0-----0--0--------|
E|-----------------------------------------------------------------------------|


Riff 3 (pre chorus)

e|-----------------------------------------------------------------------------|
B|-----------------------------------------------------------------------------|
G|-----------------------------------------------------2-----------------------|
D|-----------------------------------------------------2--------------------2--|
A|--3--3--3--3--3--3--3--3--3--3--3--3--3--3--3--3--3--0-----3--0-----------3--|
E|--1--1--1--1--1--1--1--1--1--1--1--1--1--1--1--1--1--------------3--0--5-----|



e|-----------------------------------------------------------------------|
B|-----------------------------------------------------------------------|
G|--------------------------------------------------------pick-----------|
D|-----------------------------------------------2--------slide----------|
A|--3--3--3--3--3--3--3--3--3--3--3--3--3--3--3--2-----------------------|
E|--1--1--1--1--1--1--1--1--1--1--1--1--1--1--1--0-----------------------|



e|-----------------------------------------------------------------------------|
B|-----------------------------------------------------------------------------|
G|-----------------------------------------------------2-----------------------|
D|-----------------------------------------------------2--------------------2--|
A|--3--3--3--3--3--3--3--3--3--3--3--3--3--3--3--3--3--0-----3--0--------0--3--|
E|--1--1--1--1--1--1--1--1--1--1--1--1--1--1--1--1--1--------------3--0--------|



e|-----------------------------------------------------------------|
B|-----------------------------------------------------------------|
G|-----------------------------------------------------------------|
D|-----------------------------------------------2-----------------|
A|--3--3--3--3--3--3--3--3--3--3--3--3--3--3--3--2-----------------|
E|--1--1--1--1--1--1--1--1--1--1--1--1--1--1--1--0-----------------|


Riff 1 (chorus) x2

e|--------------------------------------------------|
B|--------------------------------------------------|
G|--9--9-----8-----9--------9--9-----8-----9--------|
D|--7--7-----7-----7--------7--7-----7-----7--------|
A|--------0-----0-----0--0--------0-----0-----0--0--|
E|--------------------------------------------------|



e|--------------------------------------------------|
B|--------------------------------------------------|
G|--5--5-----4-----5--------7--7-----6-----7--------|
D|--3--3-----3-----3--------5--5-----5-----5--------|
A|--------0-----0-----0--0--------0-----0-----0--0--|
E|--------------------------------------------------|



e|--------------------------------------------------|
B|--------------------------------------------------|
G|--9--9-----8-----9--------9--9-----8-----9--------|
D|--7--7-----7-----7--------7--7-----7-----7--------|
A|--------0-----0-----0--0--------0-----0-----0--0--|
E|--------------------------------------------------|



e|-------------------------------------------|
B|-------------------------------------------|
G|--5--5-----4-----5--------7----------------|
D|--3--3-----3-----3--------5----------------|
A|--------0-----0-----0--0-------------------|
E|-------------------------------------------|


Riff 2 (verse 2) x2

e|-----------------------------------------------------------------------------|
B|-----------------------------------------------------------------------------|
G|--9-----------9-----------5--5-----4-----5--------5-----------5--------4-----|
D|--7-----------7-----------3--3-----3-----3--------3-----------3--------2-----|
A|-----0--0--0-----0--0--0--------0-----0-----0--0-----0--0--0-----0--0--------|
E|-----------------------------------------------------------------------------|



e|-----------------------------------------------------------------------------|
B|-----------------------------------------------------------------------------|
G|--9-----------9-----------5--5-----4-----5--------5-----------5--------7-----|
D|--7-----------7-----------3--3-----3-----3--------3-----------3--------5-----|
A|-----0--0--0-----0--0--0--------0-----0-----0--0-----0--0--0-----0--0--------|
E|-----------------------------------------------------------------------------|


Riff 3 (pre chorus)

e|-----------------------------------------------------------------------------|
B|-----------------------------------------------------------------------------|
G|-----------------------------------------------------2-----------------------|
D|-----------------------------------------------------2--------------------2--|
A|--3--3--3--3--3--3--3--3--3--3--3--3--3--3--3--3--3--0-----3--0-----------3--|
E|--1--1--1--1--1--1--1--1--1--1--1--1--1--1--1--1--1--------------3--0--5-----|



e|-----------------------------------------------------------------------|
B|-----------------------------------------------------------------------|
G|--------------------------------------------------------pick-----------|
D|-----------------------------------------------2--------slide----------|
A|--3--3--3--3--3--3--3--3--3--3--3--3--3--3--3--2-----------------------|
E|--1--1--1--1--1--1--1--1--1--1--1--1--1--1--1--0-----------------------|



e|-----------------------------------------------------------------------------|
B|-----------------------------------------------------------------------------|
G|-----------------------------------------------------2-----------------------|
D|-----------------------------------------------------2--------------------2--|
A|--3--3--3--3--3--3--3--3--3--3--3--3--3--3--3--3--3--0-----3--0--------0--3--|
E|--1--1--1--1--1--1--1--1--1--1--1--1--1--1--1--1--1--------------3--0--------|



e|-----------------------------------------------------------------|
B|-----------------------------------------------------------------|
G|-----------------------------------------------------------------|
D|-----------------------------------------------2-----------------|
A|--3--3--3--3--3--3--3--3--3--3--3--3--3--3--3--2-----------------|
E|--1--1--1--1--1--1--1--1--1--1--1--1--1--1--1--0-----------------|


Riff 1 (chorus) x2

e|--------------------------------------------------|
B|--------------------------------------------------|
G|--9--9-----8-----9--------9--9-----8-----9--------|
D|--7--7-----7-----7--------7--7-----7-----7--------|
A|--------0-----0-----0--0--------0-----0-----0--0--|
E|--------------------------------------------------|



e|--------------------------------------------------|
B|--------------------------------------------------|
G|--5--5-----4-----5--------7--7-----6-----7--------|
D|--3--3-----3-----3--------5--5-----5-----5--------|
A|--------0-----0-----0--0--------0-----0-----0--0--|
E|--------------------------------------------------|



e|--------------------------------------------------|
B|--------------------------------------------------|
G|--9--9-----8-----9--------9--9-----8-----9--------|
D|--7--7-----7-----7--------7--7-----7-----7--------|
A|--------0-----0-----0--0--------0-----0-----0--0--|
E|--------------------------------------------------|



e|-------------------------------------------|
B|-------------------------------------------|
G|--5--5-----4-----5--------7----------------|
D|--3--3-----3-----3--------5----------------|
A|--------0-----0-----0--0-------------------|
E|-------------------------------------------|


Riff 4 (bridge) x2

e|----------------------------------------------------|
B|----------------------------------------------------|
G|----------------------------------------------------|
D|--7-------------------------------------------------|
A|--7------------3-----2-----0-----5-----3-----2------|
E|--5-------------------------------------------------|



e|----------------------------------------------------|
B|----------------------------------------------------|
G|----------------------------------------------------|
D|--7-------------------------------------------------|
A|--7------------3-----2-----0-----5-----3-----5------|
E|--5-------------------------------------------------|


Riff 5 (rhythm for solo) x2

e|--------------------------------------------------------------|
B|--------------------------------------------------------------|
G|--9------------------9------------------5----------4----------|
D|--7------------------7------------------3----------2----------|
A|------0--0--0--0--0------0--0--0--0--0------------------------|
E|--------------------------------------------------------------|



e|--------------------------------------------------------------|
B|--------------------------------------------------------------|
G|--9------------------9------------------5----------7----------|
D|--7------------------7------------------3----------5----------|
A|------0--0--0--0--0------0--0--0--0--0------------------------|
E|--------------------------------------------------------------|


Solo

e|--------------------------------------12-13-15-15-13-12----12--------------|
B|-----------------------------12-13-15-------------------15----15-13-12-----|
G|--------------------11-12-14-------------------------------------------14--|
D|-----------12-14-15--------------------------------------------------------|
A|--12-14-15-----------------------------------------------------------------|
E|---------------------------------------------------------------------------|



e|--------------------15b---15~-14--12-14-12----12---------------------------|
B|--12---------------------------------------15----14-15-14-12---------------|
G|-----14-12-11----11------------------------------------------14~-----------|
D|--------------14-----------------------------------------------------------|
A|---------------------------------------------------------------------------|
E|---------------------------------------------------------------------------|



e|---------------------------------17--20-17----17-20-17-20-17----17-20-17--|
B|--15b--15--13------15--13~---20------------20----------------20-----------|
G|---------------14---------------------------------------------------------|
D|--------------------------------------------------------------------------|
A|--------------------------------------------------------------------------|
E|--------------------------------------------------------------------------|



e|--20-17-----------------5----------------------------------------------------|
B|--------20b----------5-----5--8b--5--8b-------8--6--5------5-----5-----------|
G|------------------7b-----------------------------------7b-----7-----5--7~----|
D|-----------------------------------------------------------------------------|
A|-----------------------------------------------------------------------------|
E|-----------------------------------------------------------------------------|



e|---------------------------------------------------------------------------|
B|---------------------------------------------------------------------------|
G|--7-5-4-4-9-7-5-5-10-9-7-7-12-10-9-9-13-12-10-10-15-13-12-12-17-15-13-13---|
D|---------------------------------------------------------------------------|
A|---------------------------------------------------------------------------|
E|---------------------------------------------------------------------------|



e|----------------------------------------------------------------20-19-17---|
B|------------------17--20-17----17-20-17----17-20-17----17--20b-------------|
G|--19-17-15-15-19b-----------19----------19----------19---------------------|
D|---------------------------------------------------------------------------|
A|---------------------------------------------------------------------------|
E|---------------------------------------------------------------------------|



e|-----17----------------------17-20-22b-------------|
B|--20----20-19-17----17-19-20-----------------------|
G|-----------------19--------------------------------|
D|---------------------------------------------------|
A|---------------------------------------------------|
E|---------------------------------------------------|


Riff 3 (pre chorus)

e|-----------------------------------------------------------------------------|
B|-----------------------------------------------------------------------------|
G|-----------------------------------------------------2-----------------------|
D|-----------------------------------------------------2--------------------2--|
A|--3--3--3--3--3--3--3--3--3--3--3--3--3--3--3--3--3--0-----3--0-----------3--|
E|--1--1--1--1--1--1--1--1--1--1--1--1--1--1--1--1--1--------------3--0--5-----|



e|-----------------------------------------------------------------------|
B|-----------------------------------------------------------------------|
G|--------------------------------------------------------pick-----------|
D|-----------------------------------------------2--------slide----------|
A|--3--3--3--3--3--3--3--3--3--3--3--3--3--3--3--2-----------------------|
E|--1--1--1--1--1--1--1--1--1--1--1--1--1--1--1--0-----------------------|



e|-----------------------------------------------------------------------------|
B|-----------------------------------------------------------------------------|
G|-----------------------------------------------------2-----------------------|
D|-----------------------------------------------------2--------------------2--|
A|--3--3--3--3--3--3--3--3--3--3--3--3--3--3--3--3--3--0-----3--0--------0--3--|
E|--1--1--1--1--1--1--1--1--1--1--1--1--1--1--1--1--1--------------3--0--------|



e|-----------------------------------------------------------------|
B|-----------------------------------------------------------------|
G|-----------------------------------------------------------------|
D|-----------------------------------------------2-----------------|
A|--3--3--3--3--3--3--3--3--3--3--3--3--3--3--3--2-----------------|
E|--1--1--1--1--1--1--1--1--1--1--1--1--1--1--1--0-----------------|


Riff 1 (chorus)

e|--------------------------------------------------|
B|--------------------------------------------------|
G|--9--9-----8-----9--------9--9-----8-----9--------|
D|--7--7-----7-----7--------7--7-----7-----7--------|
A|--------0-----0-----0--0--------0-----0-----0--0--|
E|--------------------------------------------------|



e|--------------------------------------------------|
B|--------------------------------------------------|
G|--5--5-----4-----5--------7--7-----6-----7--------|
D|--3--3-----3-----3--------5--5-----5-----5--------|
A|--------0-----0-----0--0--------0-----0-----0--0--|
E|--------------------------------------------------|



e|--------------------------------------------------|
B|--------------------------------------------------|
G|--9--9-----8-----9--------9--9-----8-----9--------|
D|--7--7-----7-----7--------7--7-----7-----7--------|
A|--------0-----0-----0--0--------0-----0-----0--0--|
E|--------------------------------------------------|



e|-------------------------------------------|
B|-------------------------------------------|
G|--5--5-----4-----5--------7----------------|
D|--3--3-----3-----3--------5----------------|
A|--------0-----0-----0--0-------------------|
E|-------------------------------------------|


x2

e|--------------------------------------------------|
B|--------------------------------------------------|
G|--9--9-----8-----9--------9--9-----8-----9--------|
D|--7--7-----7-----7--------7--7-----7-----7--------|
A|--------0-----0-----0--0--------0-----0-----0--0--|
E|--------------------------------------------------|



e|--------------------------------------------------|
B|--------------------------------------------------|
G|--5--5-----4-----5--------7--7-----6-----7--------|
D|--3--3-----3-----3--------5--5-----5-----5--------|
A|--------0-----0-----0--0--------0-----0-----0--0--|
E|--------------------------------------------------|


Riff 6 (outro)
e|-----------------------------------------------------------------------|
B|-----------------------------------------------------------------------|
G|-----------------------------------------------------------------------|
D|--9--9--7--9-----9--9--7--9-----9--9--7--9-----7--------9--9--7--9-----|
A|--7--7--5--7-----7--7--5--7-----7--7--5--7-----5--------7--7--5--7-----|
E|-----------------------------------------------------------------------|

| /  slide up
| \  slide down
| h  hammer-on
| p  pull-off
| ~  vibrato
| +  harmonic
| x  Mute note

TOP cifras de Grim Reaper

  1. See You In Hell
  2. Rock You To Hell
  3. Final Scream
  4. Let The Thunder Roar (intro)

Pela Web