Cifras Web
Grim Reaper

See You In Hell

Grim Reaper

7 acessos

Intro                    Gtr1

|---------------------------------|------------------------------------|
|------------------------5-7-8-7~-|------------------------------------|
|-9-------9-7-5-4-5---7--5-7-9-7~-|-9-------9-7-5-4-5---4-----|
|-9-------9-7-5-4-5---7-----------|-9-------9-7-5-4-5---4--------------|
|-7-77777-7-5-3-2-3---5-----------|-7-77777-7-5-3-2-3---2--------------|
|---------------------------------|------------------------------------|

                         Gtr2

                         Gtr1

|-----------------------------------|----------------------------------|
|-----------------------------------|----------------------------------|
|-9-------9-7-5-4-5---7--7-7h 9h10~-|-9-------9-7-5-4-5---4------------|
|-9-------9-7-5-4-5---7--9-9h10h12~-|-9-------9-7-5-4-5---4------------|
|-7-77777-7-5-3-2-3---5-------------|-7-77777-7-5-3-2-3---2------------|
|-----------------------------------|----------------------------------|

                         Gtr2

                         "See You In Hell"

|-----------------------------------|----------------------------------|
|-----------------------------------|----------------------------------|
|-9-------9-7-5-4-5---7-------------|-9-------9-7-5-4-5---4------------|
|-9-------9-7-5-4-5---7-------------|-9-------9-7-5-4-5---4------------|
|-7-77777-7-5-3-2-3---5-------------|-7-77777-7-5-3-2-3---2------------|
|-----------------------------------|----------------------------------|


Verse

|-----------------------------------|----------------------------------|
|-----------------------------------|----------------------------------|
|-9-------9-7-5-4-5---7-------------|-9-------9-7-5-4-5---4------------|
|-9-------9-7-5-4-5---7-------------|-9-------9-7-5-4-5---4------------|
|-7-77777-7-5-3-2-3---5-------------|-7-77777-7-5-3-2-3---2------------|
|-----------------------------------|----------------------------------|


                         Gtr1

|-----------------------------------|----------------------------------|
|-----------------------------------|----------------------------------|
|-9-------9-7-5-4-5---7--7-7h 9h10~-|-9-------9-7-5-4-5---4------------|
|-9-------9-7-5-4-5---7--9-9h10h12~-|-9-------9-7-5-4-5---4------------|
|-7-77777-7-5-3-2-3---5-------------|-7-77777-7-5-3-2-3---2------------|
|-----------------------------------|----------------------------------|

                         Gtr2
End of Verse

Chorus

 "See you in hell my firend"         "See you in hell my firend"

|-----------------------------------|----------------------------------|
|-----------------------------------|----------------------------------|
|-9---------------------------------|-5--------------------------------|
|-9---------------------------------|-5--------------------------------|
|-7---------------------------------|-3--------------------------------|
|-----------------------------------|----------------------------------|


 "See you in hell my firend"         "I see you in hell"

|-----------------------------------|----------------------------------|
|-----------------------------------|----------------------------------|
|-7---------------------------------|-4--------------------------5--7-o|
|-7---------------------------------|-4--------------------------5--7-o|
|-5---------------------------------|-2--------------------------3--5--|
|-----------------------------------|----------------------------------|

End of Chorus

                         "See You In Hell"

|-----------------------------------|----------------------------------|
|-----------------------------------|----------------------------------|
|-9-------9-7-5-4-5---7-------------|-9-------9-7-5-4-5---4------------|
|-9-------9-7-5-4-5---7-------------|-9-------9-7-5-4-5---4------------|
|-7-77777-7-5-3-2-3---5-------------|-7-77777-7-5-3-2-3---2------------|
|-----------------------------------|----------------------------------|


Repeat Verse and Chorus

And Then:

 Interlude
             Repeat X times

|--------------|
|--------------|
|-------------o|
|-----7h9-7---o|
|-----------9--|
|-0-0----------|


Solo Riff: Verse

Repat Verse and Chorus again

And Then

 "See you in hell my firend"         "See you in hell my firend"

|-----------------------------------|----------------------------------|
|-----------------------------------|----------------------------------|
|-9---------------------------------|-5--------------------------------|
|-9---------------------------------|-5--------------------------------|
|-7---------------------------------|-3--------------------------------|
|-----------------------------------|----------------------------------|


 "See you in hell my firend"         "I see you in hell"

|-----------------------------------|----------------------------------|
|-----------------------------------|----------------------------------|
|-7---------------------------------|-2--------------------------------|
|-7---------------------------------|-2--------------------------------|
|-5---------------------------------|-0--------------------------------|
|-----------------------------------|----------------------------------|


 "See you in hell"                   "see you in hell"

|-----------------------------------|----------------------------------|
|-----------------------------------|----------------------------------|
|-4---------------------------------|-5--------------------------------|
|-4---------------------------------|-5--------------------------------|
|-2---------------------------------|-3--------------------------------|
|-----------------------------------|----------------------------------|


 "see you in hell"

|-----------------------------------|
|-----------------------------------|
|-7---------------------------------|
|-7---------------------------------|
|-5---------------------------------|
|-----------------------------------|


Outro:                             trill
|-----------------------------------------|-------|
|-----------------------------------------|-------|
|-9-9-9-7-9-12-10-16-14-12-10-7---9======-|-9-----|
|-9-9-9-7-9-12-10-16-14-12-10-7---9======-|-9-----|
|-7-7-7-5-7-10--9-14-12-10--9-5---7======-|-7-----|
|-----------------------------------------|-------|

TOP cifras de Grim Reaper

  1. See You In Hell
  2. Rock You To Hell
  3. Final Scream
  4. Let The Thunder Roar (intro)

Pela Web