Cifras Web
Halestorm

Bad Romance

Halestorm

8 acessos

Intro

  GTR II

E|-------------------------------------------------|
B|-------------------------------------------------|
G|-------------------------------------------------|
D|----------------13-14-13----------------13-14-13-|
A|-11----11-----x-------------11-11-----x----------|
D|-------------------------------------------------|


  GTR I

E|-------------------------------------------------|
B|-------------------------------------------------|
G|-------------------------------------------------|
D|--6--------------------6-------------------------|
A|--6--------------------6-------------------------|
D|--6--------------------6------------------/12\---|

 |
 |GTR II

E|-------------------------------------------------|
B|----------------16-17-16-------------------------|
G|-13----13--------x--x--x----16-16-13-16-13-16----|
D|--x-----x-------13-14-13-----x--x--x--x--x--x----|
A|-11----11-----x-------------14-14-11-14-11-14----|
D|-------------------------------------------------|


Main Riff

  GTR I

E|------------------------------------------------------------------|
B|------------------------------------------------------------------|
G|------------------------------------------------------------------|
D|------------------------------------------------------1---2---1---|
A|--6-6-6---6---6-6-6---6---6-6-6---6-6-6---6---6-6-6---1---2---1---|
D|--6-6-6---6---6-6-6---6---6-6-6---6-6-6---6---6-6-6---1---2---1---|

 |  . . .   .   . . .   .   . . .   . . .   .   . . .
 |GTR II

E|------------------------------------------------------------------|
B|---------------------16--17--16----------------------16--17--16---|
G|-13------13-----------x---x---x------13--13-------x---x---x---x---|
D|--x-------x----------12--13--12-------x---x----------12--13--12---|
A|-11------11-------x------------------11--11-------x---------------|
D|------------------------------------------------------------------|


  GTR I

E|------------------------------------------------------------------|
B|------------------------------------------------------------------|
G|------------------------------------------------------------------|
D|------------------------------------------------------1---2---1---|
A|--6-6-6---6---6-6-6---6---6-6-6---6-6-6---6---6-6-6---1---2---1---|
D|--6-6-6---6---6-6-6---6---6-6-6---6-6-6---6---6-6-6---1---2---1---|

 |  . . .   .   . . .   .   . . .   . . .   .   . . .
 |GTR II

E|------------------------------------------------------------------|
B|---------------------16--17--16-----------------------------------|
G|-13------13-----------x---x---x------16--16--13--16--13--16-------|
D|--x-------x----------12--13--12-------x---x---x---x---x---x-------|
A|-11------11-------x------------------14--14--11--14--11--14-------|
D|------------------------------------------------------------------|


Verse

  GTR I,II

E|------------------------------------------------------------------|
B|------------------------------------------------------------------|
G|------------------------------------------------------8---9---8---|
D|------------------------------------------------------x---x---x---|
A|--6-6-6---6---6-6-6---6---6-6-6---6---6-6-6---6---6-6-6---7---6---|
D|--6-6-6---6---6-6-6---6---6-6-6---6---6-6-6---6---6-6-------------|

    . . .   .   . . .   .   . . .   .   . . .   .   . .

  GTR I,II

E|------------------------------------------------------------------|
B|------------------------------------------------------------------|
G|------------------------------------------------------------------|
D|------------------------------------------------------1---2---1---|
A|--6-6-6---6---6-6-6---6---6-6-6---6---6-6-6---6---6-6-1---2---1---|
D|--6-6-6---6---6-6-6---6---6-6-6---6---6-6-6---6---6-6-1---2---1---|

    . . .   .   . . .   .   . . .   .   . . .   .   . .

  GTR I,II

E|------------------------------------------------------------------|
B|------------------------------------------------------------------|
G|----------------------------------8-------------------------------|
D|----------------------------------8-------9-------6---1---2---1---|
A|--6-6-6---6---6-6-6---6---6-6-6---6-------9-------6---1---2---1---|
D|--6-6-6---6---6-6-6---6---6-6-6-----------9-------6---1---2---1---|

    . . .   .   . . .   .   . . .

  GTR I,II

E|------------------------------------------------------------------|
B|------------------------------------------------------------------|
G|------------------------------------------------------------------|
D|------------------------------------------------------1---2---1---|
A|--6-6-6---6---6-6-6---6---6-6-6---6-6-6---6---6-6-6---1---2---1---|
D|--6-6-6---6---6-6-6---6---6-6-6---6-6-6---6---6-6-6---1---2---1---|

    . . .   .   . . .   .   . . .   . . .   .   . . .

  GTR I,II

E|------------------------------------------------------------------|
B|------------------------------------------------------------------|
G|------------------------------------------------------8---9---8---|
D|------------------------------------------------------x---x---x---|
A|--6-6-6---6---6-6-6---6---6-6-6---6---6-6-6---6---6-6-6---7---6---|
D|--6-6-6---6---6-6-6---6---6-6-6---6---6-6-6---6---6-6-------------|

    . . .   .   . . .   .   . . .   .   . . .   .   . .

  GTR I,II

E|------------------------------------------------------------------|
B|------------------------------------------------------------------|
G|------------------------------------------------------------------|
D|------------------------------------------------------1---2---1---|
A|--6-6-6---6---6-6-6---6---6-6-6---6---6-6-6---6---6-6-1---2---1---|
D|--6-6-6---6---6-6-6---6---6-6-6---6---6-6-6---6---6-6-1---2---1---|

    . . .   .   . . .   .   . . .   .   . . .   .   . .

  GTR I,II

E|------------------------------------------------------------------|
B|------------------------------------------------------------------|
G|----------------------------------8-------------------------------|
D|----------------------------------8-------9-------6---1---2---1---|
A|--6-6-6---6---6-6-6---6---6-6-6---6-------9-------6---1---2---1---|
D|--6-6-6---6---6-6-6---6---6-6-6-----------9-------6---1---2---1---|

    . . .   .   . . .   .   . . .

  GTR I,II

E|------------------------------------------------------------------|
B|------------------------------------------------------------------|
G|------------------------------------------------------------------|
D|----------------------------------6-------------------------------|
A|--6-6-6---6---6-6-6---6---6-6-6---6-------------------------------|
D|--6-6-6---6---6-6-6---6---6-6-6---6-------------------------------|

    . . .   .   . . .   .   . . .

  GTR I,II

E|-------------|-------------|-------------|
B|-------------|-------------|-------------|
G|-------------|-------------|-------------|
D|-------------|-------------|-------------|
A|-------------|-------------|-------------|
D|-------------|-------------|-------------|


Chorus

  GTR I,II

E|-------------------------------------------------|
B|-------------------------------------------------|
G|-------------------------------------------------|
D|--2--2--2--2--2--2--2--2--4--4--4--4--4--4--4--4-|
A|--2--2--2--2--2--2--2--2--4--4--4--4--4--4--4--4-|
D|--2--2--2--2--2--2--2--2--4--4--4--4--4--4--4--4-|


  GTR I,II

E|-------------------------------------------------|
B|-------------------------------------------------|
G|-------------------------------------------------|
D|--6--6--6--6--6--6--6--6--9--9--9--9--9--9--9--9-|
A|--6--6--6--6--6--6--6--6--9--9--9--9--9--9--9--9-|
D|--6--6--6--6--6--6--6--6--9--9--9--9--9--9--9--9-|


  GTR I,II

E|-------------------------------------------------|
B|-------------------------------------------------|
G|-------------------------------------------------|
D|--2--2--2--2--2--2--2--2--4--4--4--4--4--4--4--4-|
A|--2--2--2--2--2--2--2--2--4--4--4--4--4--4--4--4-|
D|--2--2--2--2--2--2--2--2--4--4--4--4--4--4--4--4-|


  GTR I,II

E|-------------------------------------------------|
B|-------------------------------------------------|
G|-------------------------------------------------|
D|--5--5--5--5--5--5--5--5--6--6--6--6--6--6--6--6-|
A|--5--5--5--5--5--5--5--5--6--6--6--6--6--6--6--6-|
D|--5--5--5--5--5--5--5--5--6--6--6--6--6--6--6--6-|


Chorus 2

  GTR I,II

E|-------------------------------------------------|
B|-------------------------------------------------|
G|--------------4--4--------------------4--4-------|
D|--2--2--2\----------5--5--4--4--4\----------5--5-|
A|--2--2--2\----------------4--4--4\---------------|
D|--2--2--2\----------------4--4--4\---------------|

                .  .  .  .              .  .  .  .

  GTR I,II

E|-------------------------------------------------|
B|-------------------------------------------------|
G|--------------4--4--------------------4--4-------|
D|--6--6--6\----------6--6--9--9--9\----------6--6-|
A|--6--6--6\----------------9--9--9\---------------|
D|--6--6--6\----------------9--9--9\---------------|

                .  .  .  .              .  .  .  .

  GTR I,II

E|-------------------------------------------------|
B|-------------------------------------------------|
G|--------------4--4--------------------4--4-------|
D|--2--2--2\----------5--5--4--4--4\----------5--5-|
A|--2--2--2\----------------4--4--4\---------------|
D|--2--2--2\----------------4--4--4\---------------|

                .  .  .  .              .  .  .  .

  GTR I,II

E|-------------------------------------------------|
B|-------------------------------------------------|
G|--------------4--4--------------------4--4-------|
D|--5--5--5\----------6--6--6--6--6\----------6--6-|
A|--5--5--5\----------------6--6--6\---------------|
D|--5--5--5\----------------6--6--6\---------------|

                .  .  .  .              .  .  .  .

Main Riff - 1x
Verse     - 1x
Chorus    - 1x
Chorus 2  - 1x
Main Riff - 2x

Bridge

  GTR I,II

E|-------------------------------------------------|
B|-------------------------------------------------|
G|-------------------------------------------------|
D|-------------------------------------------------|
A|--2--2--2--2--2--2--2--2--4--4--4--4--4--4--4--4-|
D|--2--2--2--2--2--2--2--2--4--4--4--4--4--4--4--4-|

    .  .  .  .  .  .  .  .  .  .  .  .  .  .  .  .

  GTR I,II

E|-------------------------------------------------|
B|-------------------------------------------------|
G|-------------------------------------------------|
D|-------------------------------------------------|
A|--6--6--6--6--6--6--6--6--9--9--9--9--9--9--9--9-|
D|--6--6--6--6--6--6--6--6--9--9--9--9--9--9--9--9-|

    .  .  .  .  .  .  .  .  .  .  .  .  .  .  .  .

  GTR I,II

E|-------------------------------------------------|
B|-------------------------------------------------|
G|-------------------------------------------------|
D|-------------------------------------------------|
A|--2--2--2--2--2--2--2--2--4--4--4--4--4--4--4--4-|
D|--2--2--2--2--2--2--2--2--4--4--4--4--4--4--4--4-|

    .  .  .  .  .  .  .  .  .  .  .  .  .  .  .  .

  GTR I,II

E|-------------------------------------------------|
B|-------------------------------------------------|
G|-------------------------------------------------|
D|-------------------------------------------------|
A|--5--5--5--5--5--5--5--5--6--6--6--6--6--6--6--6-|
D|--5--5--5--5--5--5--5--5--6--6--6--6--6--6--6--6-|

    .  .  .  .  .  .  .  .  .  .  .  .  .  .  .  .

  GTR I,II

E|-------------------------------------------------|
B|-------------------------------------------------|
G|-------------------------------------------------|
D|-------------------------------------------------|
A|--2--2--2--2--2--2--2--2--4--4--4--4--4--4--4--4-|
D|--2--2--2--2--2--2--2--2--4--4--4--4--4--4--4--4-|

 |  .  .  .  .  .  .  .  .  .  .  .  .  .  .  .  .
 |GTR II

E|-------------------------------------------------|
B|-------------------------------------------------|
G|-------16-------16-------------16-------16-------|
D|----------16-------16-------------16-------16----|
A|-------------12-------12-------------12-------12-|
D|-------------------------------------------------|


  GTR I,II

E|-------------------------------------------------|
B|-------------------------------------------------|
G|-------------------------------------------------|
D|-------------------------------------------------|
A|--6--6--6--6--6--6--6--6--9--9--9--9--9--9--9--9-|
D|--6--6--6--6--6--6--6--6--9--9--9--9--9--9--9--9-|

 |  .  .  .  .  .  .  .  .  .  .  .  .  .  .  .  .
 |GTR II

E|-------------------------------------------------|
B|-------------------------------------------------|
G|-------16-------16-------------16-------16-------|
D|----------16-------16-------------16-------16----|
A|-------------12-------12-------------12-------12-|
D|-------------------------------------------------|


  GTR I

E|-------------------------------------------------|
B|-------------------------------------------------|
G|-------------------------------------------------|
D|-------------------------------------------------|
A|--2--2--2--2--2--2--2--2--4--4--4--4--4--4--4--4-|
D|--2--2--2--2--2--2--2--2--4--4--4--4--4--4--4--4-|

 |  .  .  .  .  .  .  .  .  .  .  .  .  .  .  .  .
 |GTR II

E|-------------------------------------------------|
B|-------------------------------------------------|
G|-------16-16-15-15-11-11-------16-16-15-15-11-11-|
D|--------x--x--x--x--x--x--------x--x--x--x--x--x-|
A|-------14-14-13-13--9--9-------14-14-13-13--9--9-|
D|-------------------------------------------------|


  GTR I

E|-------------------------------------------------|
B|-------------------------------------------------|
G|-------------------------------------------------|
D|--------------------------6\---------------------|
A|--5--5--5--5--5--5--5--5--6\---------------------|
D|--5--5--5--5--5--5--5--5--6\---------------------|

 |  .  .  .  .  .  .  .  .
 |GTR II

E|-------------------------------------------------|
B|-------------------------------------------------|
G|-------16-16-15-15-11-11-16----------------------|
D|--------x--x--x--x--x--x--x----------------------|
A|-------14-14-13-13--9--9-14----------------------|
D|-------------------------------------------------|


Chorus - 2x

Outro

  GTR I

E|-------------------------------------------------|
B|-------------------------------------------------|
G|-------------------------------------------------|
D|--6--------------------------------------6-----6-|
A|--6--------------------------------------6-----6-|
D|--6--------------------------------------6-----6-|

 |
 |GTR II

E|-------------------------------------------------|
B|----------------16-17-16----------------16-17-16-|
G|-13----13--------x--x--x----13-13--------x--x--x-|
D|--x-----x-------13-14-13-----x--x-------13-14-13-|
A|-11----11-----x-------------11-11-----x----------|
D|-------------------------------------------------|


  GTR I

E|-------------------------------------------------|
B|-------------------------------------------------|
G|-------------------------------------------------|
D|--------------------------6--------------------6-|
A|--------------------------6--------------------6-|
D|--------------------------6--------------------6-|

 |
 |GTR II
E|-------------------------------------------------|
B|----------------16-17-16-------------------------|
G|-13----13--------x--x--x-------------------------|
D|--x-----x-------13-14-13--6--------------------6-|
A|-11----11-----x-----------6--------------------6-|
D|--------------------------6--------------------6-|

TOP cifras de Halestorm

  1. I Miss The Misery
  2. Daugthers Of Darkness
  3. I Get Off
  4. Innocence
  5. Hate It When You See Me Cry
  6. I'm Not An Angel
  7. Bad Romance
  8. Better Sorry Than Safe
  9. Don't Say a Word
  10. Mz Hyde

Pela Web