Cifras Web
Halestorm

Don't Say a Word

Halestorm

8 acessos

Intro / Verso 1:

    A#5              F#5
E|--------------------------------------|
B|--------------------------------------|
G|--3-3-3-3-3-3-3-0---------------------|  (2x na intro)
D|--3-3-3-3-3-3-3-0--4-4-4-4-4-4-4-0----|
A|--1-1-1-1-1-1-1-0--4-4-4-4-4-4-4-0----|
E|-------------------2-2-2-2-2-2-2-0----|

Please don't
I've heard it all before
I won't ask what I don't want to know
I don't want to listen anymore

A#5          F#5                       A#5
Please don't give me that feeling darlin'
          F#5                   A#5
I won't say I will never leave you
        F#5                G#5
I don't want to feel the truth

Refrão:
A#5
But I do
            F#5
Don't say a word
 G#5           A#5
I know everything
            F#5
Don't say a word
     G#5          A#5
Let's go back to sleep
          F#5
'Cause it hurts
                      A#5
It hurts too much to think

(Intro 2x)

A#5         F#5            A#5
Don't point fingers at 3 AM
               F#5           A#5
I am doing the best that I can
        F#5                G#5
I won't ask for more than a man

Refrão:
A#5
But I do
            F#5
Don't say a word
 G#5           A#5
I know everything
            F#5
Don't say a word
     G#5          A#5
Let's go back to sleep
          F#5
'Cause it hurts
                      A#5
It hurts too much to think
      F#5                A#5
No it hurts too much to think
      F#5                A#5
No it hurts too much to think

     A#5              F#5
E|--------------------------------------|
B|--------------------------------------|
G|--3-3-3-3-3-3-3-0---------------------|
D|--3-3-3-3-3-3-3-0--4-4-4-4-4-4-4-0----|
A|--1-1-1-1-1-1-1-0--4-4-4-4-4-4-4-0----|
E|-------------------2-2-2-2-2-2-2-0----|

No love, no regrets
We hold our place
We'll figure it out
How to sleep woth out doubts
Just let me explain

A#5           F#5
Don't say a word
A#5           F#5
Don't say a word
A#5           F#5
Don't say a word
No
                      A#5
'Cause it hurts too much to think
      F#5                A#5
No it hurts too much to think
      F#5                A#5
No it hurts too much to think
(just let me explain)

( A#5 F#5 ) (2x)

TOP cifras de Halestorm

  1. I Miss The Misery
  2. Daugthers Of Darkness
  3. I Get Off
  4. Innocence
  5. Hate It When You See Me Cry
  6. I'm Not An Angel
  7. Bad Romance
  8. Better Sorry Than Safe
  9. Don't Say a Word
  10. Mz Hyde

Pela Web