Cifras Web
Halestorm

Mz Hyde

Halestorm

8 acessos

Afinação| Drop D

Introdução


E|-----------|-----|----------------------------------|
B|-----------|-----|----------------------------------|
G|-----------|-----|----------------------------------|
D|-----------|-----|----------------------------------|
A|0-0-0h3h5--|-----|-88-7-----------------------------|
D|0-0-0h3h5--|[x3]-|-88-7-----------------------------|



E|-----------|-----|----------------------------------|
B|-----------|-----|----------------------------------|
G|-----------|-----|----------------------------------|
D|-----------|-----|----------------------------------|
A|0-0-0h3h5--|-----|----------------------------------|
D|0-0-0h3h5--|[x3]-|-0h3h5/s/7v-----------------------|


Verso


E|--------------------------------------------------|
B|--------------------------------------------------|
G|--------------------------------------------------|
D|--------------------------------------------------|
A|00-033-388-877-700--------------------------------|
D|00-033-388-877-700--------------------------------|




E|--------------------------------------------------|
B|--------------------------------------------------|
G|--------------------------------------------------|
D|--------------------------------------------------|
A|00-033-388-873------------------------------------|
D|00-033-388-873------------------------------------|


Pre-Refrão Parte 1


E|--------------------------------------------------|
B|--------------------------------------------------|
G|--------------------------------------------------|
D|--------------------------------------------------|
A|--------------------------------------------------|
D|000000-333333-222222-111111-----------------------|


Pre-Refrão Parte 2


E|--------------------------------------------------|
B|--------------------------------------------------|
G|--------------------------------------------------|
D|--------------------------------------------------|
A|88888888-7----------------------------------------|
D|88888888-7----------------------------------------|


Refrão


E|--------------------------------------------------|
B|--------------------------------------------------|
G|--------------------------------------------------|
D|--------------------------------------------------|
A|0000-3333-8888-7777-0000-3333-8-5-7-3-------------|
D|0000-3333-8888-7777-0000-3333-8-5-7-3-------------|


Toque o Pré-Refrão Parte 2
Toque a Introdução
Volte para o Verso


E|--------------------------------------------------|
B|--------------------------------------------------|
G|--------------------------------------------------|
D|--------------------------------------------------|
A|88888888-77777777---------------------------------|
D|88888888-77777777---------------------------------|


Interludio


E|--------------------------------------------------|
B|--------------------------------------------------|
G|--7-----------------------------------------------|
D|-5-5----------------------------------------------|
A|5-------------------------------------------------|
D|--------------------------------------------------|


E|--------------------------------------------------|
B|--------------------------------------------------|
G|7-------------------------------------------------|
D|5-------------------------------------------------|
A|5-------------------------------------------------|
D|--------------------------------------------------|

TOP cifras de Halestorm

  1. I Miss The Misery
  2. Daugthers Of Darkness
  3. I Get Off
  4. Innocence
  5. Hate It When You See Me Cry
  6. I'm Not An Angel
  7. Bad Romance
  8. Better Sorry Than Safe
  9. Don't Say a Word
  10. Mz Hyde

Pela Web