Cifras Web
Igl3sias

Declarações de Amor

Igl3sias

17 acessos

(intro)

     D5                   E7/D
E|------------------------------------------------|
B|------3------3---3---------3------3---3---------|
G|----2---2------2---------1---1------1-----------|
D|--0--------------------0------------------------|
A|------------------------------------------------|
E|------------------------------------------------|



     G/B                 C9
E|------------------------------------------------|
B|------3------3---3---------3------3---3---------|
G|----0---0------0---------0---0------0-----------|
D|------------------------------------------------|
A|--2-------------------3-------------------------|
E|------------------------------------------------|


D5                      G/B
Ouço a chuva forte na varanda
    C9             D5           ( D5  G/B  C9 )
Contando sobre alguém que é amor
D5                        G/B
Declarando que o sol e a lua
    C9            D5               ( D5  G/B  C9 )
são partes de um quadro de um pintor

D5                      G/B
A mudança de estação no ano
  C9               D5           ( D5  G/B  C9 )
Revela mais que a vinda do calor
D5                   G/B
Pois com sua regularidade
 C9        D5           ( D5  G/B  C9 )
Afirma existir um Criador

G                      D/F#
Como eu não havia enxergado
              E7
Que pela natureza ouço o murmurar
Em7                      D/G
De um Deus Pintor e até Poeta
            (  D5          E7/D  G/B  C9 ) (2x)
Que faz declarações de amor

D5                      G/B
Cada nova estrela é um poema
    C9             D5           ( D5  G/B  C9 )
Escrito lá no céu por meu Senhor
D5                        G/B
Que nas noites frias de inverno
    C9             D5           ( D5  G/B  C9 )
Me traz palavras quentes de amor

G                      D/F#
Como eu não havia enxergado
              E7
Que pela natureza ouço o murmurar
Em7                      D/G
De um Deus Pintor e até Poeta
            (  G          D/F#  E7 )
Que faz declarações de amor

Em7                     D/G
De um Deus Pintor e até Poeta
             (  D5        E7/D  G/B  C9  ) (2x)
Que faz declarações de amor.

TOP cifras de Igl3sias

  1. Na Cruz Eu Venci
  2. Declarações de Amor
  3. 4 (Provérbios 30)
  4. Vendaval
  5. Habitarei Em Ti
  6. Agradeço
  7. Viagem
  8. Acrobata
  9. Um Pescador
  10. Tudo

Pela Web